Oops, an error
Loading. Please wait.

Mist Of The Mourning tab

250 views 1 this week
no commentswrite comment
1 2 3 4 5
3 more votes to show rating
add to favorites
×
Save as Personal and add changes to this tab that will be seen only by you. Learn more ›
×
You can save this tab as Personal to edit and correct it or add notes. All changes will be seen only by you. Learn more »
launch autoscroll
font size
0
reset
how to read this tab
guitar tuner
edit
Autoscroll
slow
fast
+/-
esc
set tempo
stop
Author
Difficulty
-------------------------------------------------------------------------------
                             Mist of the Mourning - Dean Magraw
-------------------------------------------------------------------------------
Tabbed by: Trelt

Tuning: Standard EADGBe

http://deanmagraw.com/
http://www.candyrat.com/artists/DeanMagraw/

This should be at least 99% accurate.

some of the chords picked are strummed slower or fast upwards. Watch the video on 
candyrat to figure out what its supposed to sound like

e|--------------------------0--------------0-----0---0-----2------------------|
B|-----------------10--8--7----3/5---------3/5---5---5\3---3------------------|
G|-----------------9-----------------------2/4---4---4\2---2------------------|
D|-------------0---------------------------0-----0---0-----0------------------|
A|--[12]----------------------------------------------------------------------|
E|------------------------------------*0--------------------------------------|

e|------2---2---2---0---3-----------------------------------------------------|
B|------3---3---3---0---5------------------[12]----10-----7-------------------|
G|------2---2---2---0---4-------------0----[12]----11-----7-------------------|
D|------0---0---0---0---0---------0--------[12]----0------7-------------------|
A|--------------------------------------------------------0-------------------|
E|--0--------------------------0----------------------------------------------|

e|------0-----0---0-----2-------2---2---2---0---3-----------------------------|
B|------3/5---5---5\3---3-------3---3---3---0---5-----------------------------|
G|------2/4---4---4\2---2-------2---2---2---0---4-----------------------------|
D|------0-----0---0-----0-------0---0---0---0---0-----------------------------|
A|----------------------------------------------------------------------------|
E|--0-----------------------0-------------------------------------------------|

e|-------------------------------------10-------------------------------------|
B|------------[12]----------------10---10-------------------------------------|
G|---------0--[12]----------------11---11-------------------------------------|
D|------0-----[12]--------[12]----0----0--------------------------------------|
A|----------------------------------------------------------------------------|
E|--0-----------------[12]----------------------------------------------------|

^^(repeat 1x starting at the *)^^

e|-----------0--------2--------3-----------------2--------3--------5-----------|
B|--------1-----1--------1--------1-----------3-----3--------3--------3--------|
G|-----0-----------0--------0--------0-----2-----------2--------2--------2-----|
D|--------------------------------------0--------------------------------------|
A|--3--------------------------------------------------------------------------|
E|-----------------------------------------------------------------------------|

e|-----------0--------2--------3-----------------------------------------------|
B|--------1-----1--------1--------1-----[12]--------10\8--10--[12]-------------|
G|-----0-----------0--------0--------0--[12]--------11\9--11--[12]-------------|
D|--------------------------------------[12]--------0-----0---[12]-------------|
A|--3-----------------------------------[12]------------------[12]-------------|
E|--------------------------------------[12]--[12]------------[12]-------------|

e|-----------0--------2--------3-----------------2--------3--------8-----------|
B|--------1-----1--------1--------1-----------3-----3--------3-----8-----------|
G|-----0-----------0--------0--------0-----2-----------2--------2--9-----------|
D|--------------------------------------0--------------------------10----------|
A|--3--------------------------------------------------------------------------|
E|-----------------------------------------------------------------------------|

e|--------------[12]--------10------3--3---------------0-----------------------|
B|--[12]--------[12]--------10--10--3--3-----10--8--7-----3/5------------------|
G|--[12]--------------------11--11--5--5-----9---9--7--------------------------|
D|--[12]--------------------0---12--5--5--0--0---0-----------------------------|
A|--[12]------------------------0---3--3---------------------------------------|
E|--[12]--[12]--------[12]----------3--3---------------------------------------|

e|------0-----0---0-----2-------2---2---2---0---3------------------------------|
B|------3/5---5---5\3---3-------3---3---3---0---5-----------[12]---------10--7-|
G|------2/4---4---4\2---2-------2---2---2---0---4--------0--[12]---------11--7-|
D|------0-----0---0-----0-------0---0---0---0---0-----0-----[12]---[12]--0---7-|
A|---------------------------------------------------------------------------0-|
E|--0-----------------------0----------------------0-------------[12]----------|

e|------0-----0---0-----2-------2---2---2---0---3----------------------------10|
B|------3/5---5---5\3---3-------3---3---3---0---5-----------[12]---------10--10|
G|------2/4---4---4\2---2-------2---2---2---0---4--------0--[12]---------11--11|
D|------0-----0---0-----0-------0---0---0---0---0-----0-----[12]---[12]--0---0-|
A|-----------------------------------------------------------------------------|
E|--0-----------------------0----------------------0-------------[12]----------|

e|-----------0--------2--------3-----------------2--------3--------5-----------|
B|--------1-----1--------1--------1-----------3-----3--------3--------3--------|
G|-----0-----------0--------0--------0-----2-----------2--------2--------2-----|
D|--------------------------------------0--------------------------------------|
A|--3--------------------------------------------------------------------------|
E|-----------------------------------------------------------------------------|

e|-----------0--------2--------3-----------------------------------------------|
B|--------1-----1--------1--------1-----[12]--------10\8--10--[12]-------------|
G|-----0-----------0--------0--------0--[12]--------11\9--11--[12]-------------|
D|--------------------------------------[12]--------0-----0---[12]-------------|
A|--3-----------------------------------[12]------------------[12]-------------|
E|--------------------------------------[12]--[12]------------[12]-------------|

e|-----------0--------2--------3-----------------2--------3--------8-----------|
B|--------1-----1--------1--------1-----------3-----3--------3-----8-----------|
G|-----0-----------0--------0--------0-----2-----------2--------2--9-----------|
D|--------------------------------------0--------------------------10----------|
A|--3--------------------------------------------------------------------------|
E|-----------------------------------------------------------------------------|

e|--------------[12]--------10------3--3---------------0-----------------------|
B|--[12]--------[12]--------10--10--3--3-----10--8--7-----3/5------------------|
G|--[12]--------------------11--11--5--5-----9---9--7--------------------------|
D|--[12]--------------------0---12--5--5--0--0---0-----------------------------|
A|--[12]------------------------0---3--3---------------------------------------|
E|--[12]--[12]--------[12]----------3--3---------------------------------------|

e|------0-----0---0-----2-------2---2---2---0---3------------------------------|
B|------3/5---5---5\3---3-------3---3---3---0---5-----------[12]---------10--7-|
G|------2/4---4---4\2---2-------2---2---2---0---4--------0--[12]---------11--7-|
D|------0-----0---0-----0-------0---0---0---0---0-----0-----[12]---[12]--0---7-|
A|---------------------------------------------------------------------------0-|
E|--0-----------------------0----------------------0-------------[12]----------|

e|------0-----0---0-----2-------2---2---2---0---3----------------------------10|
B|------3/5---5---5\3---3-------3---3---3---0---5-----------[12]---------10--10|
G|------2/4---4---4\2---2-------2---2---2---0---4--------0--[12]---------11--11|
D|------0-----0---0-----0-------0---0---0---0---0-----0-----[12]---[12]--0---0-|
A|-----------------------------------------------------------------------------|
E|--0-----------------------0----------------------0-------------[12]----------|

e|------0-----0---0-----2-------2---2---2---0---3------------------------------|
B|------3/5---5---5\3---3-------3---3---3---0---5-----------[12]---------10--7-|
G|------2/4---4---4\2---2-------2---2---2---0---4--------0--[12]---------11--7-|
D|------0-----0---0-----0-------0---0---0---0---0-----0-----[12]---[12]--0---7-|
A|---------------------------------------------------------------------------0-|
E|--0-----------------------0----------------------0-------------[12]----------|

e|------0-----0---0-----2-------2---2---2---0---3----------------------------10|
B|------3/5---5---5\3---3-------3---3---3---0---5-----------[12]---------10--10|
G|------2/4---4---4\2---2-------2---2---2---0---4--------0--[12]---------11--11|
D|------0-----0---0-----0-------0---0---0---0---0-----0-----[12]---[12]--0---0-|
A|-----------------------------------------------------------------------------|
E|--0-----------------------0----------------------0-------------[12]----------|

e|-----------0--------2--------3-----------------2--------3--------5-----------|
B|--------1-----1--------1--------1-----------3-----3--------3--------3--------|
G|-----0-----------0--------0--------0-----2-----------2--------2--------2-----|
D|--------------------------------------0--------------------------------------|
A|--3--------------------------------------------------------------------------|
E|-----------------------------------------------------------------------------|

e|-----------0--------2--------3-----------------------------------------------|
B|--------1-----1--------1--------1-----[12]--------10\8--10--[12]-------------|
G|-----0-----------0--------0--------0--[12]--------11\9--11--[12]-------------|
D|--------------------------------------[12]--------0-----0---[12]-------------|
A|--3-----------------------------------[12]------------------[12]-------------|
E|--------------------------------------[12]--[12]------------[12]-------------|

e|-----------0--------2--------3-----------------2--------3--------8-----------|
B|--------1-----1--------1--------1-----------3-----3--------3-----8-----------|
G|-----0-----------0--------0--------0-----2-----------2--------2--9-----------|
D|--------------------------------------0--------------------------10----------|
A|--3--------------------------------------------------------------------------|
E|-----------------------------------------------------------------------------|

e|--------------[12]--------10------3--3---------------0-----------------------|
B|--[12]--------[12]--------10--10--3--3-----10--8--7-----3/5------------------|
G|--[12]--------------------11--11--5--5-----9---9--7--------------------------|
D|--[12]--------------------0---12--5--5--0--0---0-----------------------------|
A|--[12]------------------------0---3--3---------------------------------------|
E|--[12]--[12]--------[12]----------3--3---------------------------------------|


e|------0-----0---0-----2-------2---2---2---0---3------------------------------|
B|------3/5---5---5\3---3-------3---3---3---0---5-----------[12]---------10--7-|
G|------2/4---4---4\2---2-------2---2---2---0---4--------0--[12]---------11--7-|
D|------0-----0---0-----0-------0---0---0---0---0-----0-----[12]---[12]--0---7-|
A|---------------------------------------------------------------------------0-|
E|--0-----------------------0----------------------0-------------[12]----------|

e|------0-----0---0-----2-------2---2---2---0---3----------------------------10|
B|------3/5---5---5\3---3-------3---3---3---0---5-----------[12]---------10--10|
G|------2/4---4---4\2---2-------2---2---2---0---4--------0--[12]---------11--11|
D|------0-----0---0-----0-------0---0---0---0---0-----0-----[12]---[12]--0---0-|
A|-----------------------------------------------------------------------------|
E|--0-----------------------0----------------------0-------------[12]----------|

e|------0-----0---0-----2-------2---2---2---0---3------------------------------|
B|------3/5---5---5\3---3-------3---3---3---0---5-----------[12]---------10--7-|
G|------2/4---4---4\2---2-------2---2---2---0---4--------0--[12]---------11--7-|
D|------0-----0---0-----0-------0---0---0---0---0-----0-----[12]---[12]--0---7-|
A|---------------------------------------------------------------------------0-|
E|--0-----------------------0----------------------0-------------[12]----------|

e|------0-----0---0-----2-------2---2---2---0---3----------------------------10|
B|------3/5---5---5\3---3-------3---3---3---0---5-----------[12]---------10--10|
G|------2/4---4---4\2---2-------2---2---2---0---4--------0--[12]---------11--11|
D|------0-----0---0-----0-------0---0---0---0---0-----0-----[12]---[12]--0---0-|
A|-----------------------------------------------------------------------------|
E|--0-----------------------0----------------------0-------------[12]----------|

e|--10--8---------------5------------------------------------------------------|
B|--8---10--[12]-------3-------------------------------------------------------|
G|--9---9---[12]------2--------------------------------------------------------|
D|--10--10--[12]-----0---------------------------------------------------------|
A|--0---0---[12]----0----------------------------------------------------------|
E|----------[12]---------------------------------------------------------------|


************************************

| /   slide up
| \   slide down
| h   hammer-on
| p   pull-off
| ~   vibrato
| []   harmonic
| x   Mute note
| b   Bend
| pb  Pre-bend
| br  Bend release
| pbr Pre-bend release
| brb Bend release bend

************************************

            
            
Suggest correction
Creating personal tab
Creating personal tab
You can edit any tab online and save it as your Personal.

You can edit, replace or remove any tab part or add personal notes – all changes will be seen only by you.

Personal tabs can be accessed anytime from any device, even offline.
Learn more »
Give kudos to tab author, rate the tab!
1 2 3 4 5
comments
print report bad tab
guest
You may want to rate the tab now too:
select rating
Wanna post a correction for this tab? Suggest correction