Oops, an error
Loading. Please wait.

Rollercoaster chords

301 views 12 this week
no commentswrite comment
1 2 3 4 5
3 more votes to show rating
add to favorites
×
Save as Personal and add changes to this tab that will be seen only by you. Learn more ›
×
You can save this tab as Personal to edit and correct it or add notes. All changes will be seen only by you. Learn more »
launch autoscroll
font size
0
reset
transpose
0
reset
simplify chords
display chords
guitar tuner
edit
Autoscroll
slow
fast
+/-
esc
set tempo
stop
Strumming
There is no strumming pattern for this song yet. and get +5 IQ
Dear Nora - "Rollercoaster"
Track 1 from "We'll Have A Time"

Tuning: Standard (EADGBE low to high)
Capo: 2nd fret

The chords in this song are weird and arpeggiated.
Look below for the picking pattern and chord voicings!

Originally tabbed by http://frankwithyou.net/dearnora/WellHaveATime/01.Rollercoaster.txt

---------------------------------------------------------------------------

Intro Riff

(picked)
   D        D/F#  B5addb6       Gmaj7
If I should cry I know I'd be inside
  E5add6        F#m F#m/G D/A
A rollercoaster ride
  D        D/F#         B5addb6       Gmaj7
Beside the light that's getting in my eyes
  E5add6        F#m F#m/G F#m
A rollercoaster ride

(strummed)
Em  A7              F#         Bm            E
Independence wasn't won with a single pellet gun
       A7   (picked->) D     D/F#      B5addb6      Gmaj7
I just wanna have some fun tonight and not get in a fight
  E5add6        F#m F#m/G D/A
A rollercoaster ride

  D        D/F#         B5addb6       Gmaj7
Beside the light that's getting in my eyes
  E5add6        F#m F#m/G D/A
A rollercoaster ride

(strummed)
Em  A7              F#         Bm            E
Independence wasn't won with a single pellet gun
       A7   (picked->) D  D/F#  B5addb6  Gmaj7  E5add6  F#m  F#m/G  D/A
I just wanna have some fun

(picked, as in the verse)                         (strum and hold)
D  D/F#  B5addb6  Gmaj7  E5add6  F#m  F#m/G  D/A  D/A

---------------------------------------------------------------------------
Intro Riff (with capo):

E|---------------------------------|
B|---------------------------------|
G|-2---0---2---0---2---0---2---0---|
D|---4---4---4---4---4---4---4---4-|
A|---------------------------------|
E|---------------------------------|
                                 If I...

Verse picking pattern (with capo):
   D       D/F#    B5addb6 Gmaj7   E5add6  F#m     F#m/G   D/A     
E|-----------------------------------------------------------------|
B|-----3-------3-------------------------------------------------3-|
G|---2-------2---------0---------------------------------------2---|
D|-0-----0-4-----4---4---------4-------4-------4-------4-----4-----|
A|-----------------2-----2---2-------2-------0-------0-----0-------|
E|-------------------------3-----3-0-----0-2-----2-3-----3---------|
If I     should  I       inside  a rollercoaster
           cry     know I'd be             ride
                                                                   (strum)
   D       D/F#    B5addb6 Gmaj7   E5add6  F#m     F#m/G   F#m     Em
E|-----------------------------------------------------------------0------|
B|-----3-------3---------------------------------------------------0------|
G|---2-------2---------0-------------------------------------------0------|
D|-0-----0-4-----4---4---------4-------4-------4-------4-------4---2------|
A|-----------------2-----2---2-------2-------0-------0-------0-----2------|
E|-------------------------3-----3-0-----0-2-----2-3-----3-2-----2-0------|
 Beside  the     that's  my      a rollercoaster                    Inde...
           light   getting eyes            ride
                       in 

---------------------------------------------------------------------------
The Chords (with capo):

D       xx023x
D/F#    xx423x
B5addb6 x240xx
Gmaj7   324xxx
E5add6  024xxx
F#m     204xxx
F#m/G   304xxx
D/A     x0423x
Em      022000
A7      x02020
F#      244322
Bm      x24432
E       022100

---------------------------------------------------------------------------
Transcribed by jacob
jacobjaffe@gmail.com

            
            
Suggest correction
Creating personal tab
Creating personal tab
You can edit any tab online and save it as your Personal.

You can edit, replace or remove any tab part or add personal notes – all changes will be seen only by you.

Personal tabs can be accessed anytime from any device, even offline.
Learn more »
Give kudos to tab author, rate the tab!
1 2 3 4 5
comments
print report bad tab
guest
You may want to rate the tab now too:
select rating
Wanna post a correction for this tab? Suggest correction