Oops, an error
Loading. Please wait.
We have an official Crystal Mountain tab made by UG professional guitarists. Check out the tab »
×
by Death
10,781 views 15 this week
2 commentsread comments
1 2 3 4 5
x 6
add to favorites
×
Save as Personal and add changes to this tab that will be seen only by you. Learn more ›
×
You can save this tab as Personal to edit and correct it or add notes. All changes will be seen only by you. Learn more »
launch autoscroll
font size
0
reset
guitar tuner
backing track
0:00
0:00
edit
Autoscroll
slow
fast
+/-
esc
set tempo
stop
Difficulty
intermediate
Band: Death
Song: Crystal Mountain
Album: Symbolic (1995)
Bassist: Kelly Conlon

Tab: Bass

Tabbed By: deanbass
E-mail: wwjd_4u_92@yahoo.com

This is my first tab. Please e-mail me for any questions or comments. Comments will be 
Please Rate my Tab.

I believe Kelly Conlon uses his fingers instead of a pick. I personally use my fingers 
this song but I guess you could also use a pick.

Tuning = 1 Step Down (D G C F)

Intro/Riff 1:

Q=179

4/4

  E E E E+H        E E E E+H        E E E E+H        Q   Q   Q   Q
F|----------------|----------------|----------------|----------------|
C|----------------|----------------|----------------|----------------|
G|------7---------|------6---------|------7---------|2---1-----------|
D|0-0-0-----------|0-0-0-----------|0-0-0-----------|--------1---3---|

  E E E E+H        E E E E+H         E E E  E E E E E  E E E E E E E  E
F|----------------|----------------|10-9-7------------|-----------------||
C|----------------|----------------|-------10-9-7-6---|--------6-7-9-10-||
G|------7---------|------6---------|----------------8-|7-5-7-8----------||
D|0-0-0-----------|0-0-0-----------|------------------|-----------------||

Verse 1:

  E E E E+H        E E E E+H        E E E E+H        Q   Q   Q   Q
F|----------------|----------------|----------------|----------------|
C|----------------|----------------|----------------|----------------|
G|------7---------|------6---------|------7---------|2---1-----------|
D|0-0-0-----------|0-0-0-----------|0-0-0-----------|--------1---3---|

  E E E E+H        E E E E+H        E E E E+H        Q   Q   Q   Q
F|----------------|----------------|----------------|----------------||
C|----------------|----------------|----------------|----------------||
G|------7---------|------6---------|------7---------|2---1-----------||
D|0-0-0-----------|0-0-0-----------|0-0-0-----------|--------1---3---||

Riff 2:

  H       H        Q.    Q.    Q    Q.    Q.    Q    Q.    Q.    Q
F|----------------|2---------------|----------------|----------------|
C|----------------|------0-----2---|------------2---|------------0---|
G|0-------0-------|----------------|------0---------|------3---------|
D|----------------|----------------|3---------------|1---------------|

  H       H        Q.    Q.    Q    Q.    Q.    Q    Q.    Q.    Q
F|----------------|2---------------|----------------|----------------||
C|----------------|------0---------|------------2---|------------0---||
G|0-------0-------|------------3---|------0---------|------3---------||
D|----------------|----------------|3---------------|1---------------||

Interlude:  ****NOTE****

  SSSSSSSSSSSSSSSS SSSSSSSSSSSSSSSS SSSSSSSSSSSSSSSS SSSSSSSSSSSSSSSS
F|----------------|----------------|----------------|----------------|
C|----------------|----------------|----------------|----------------|
G|----------------|----------------|----------------|----------------|
D|0000000000000000|0000000000000000|0000000000000000|0000000000000000|

  SSSSSSSSSSSSSSSS SSSSSSSSSSSSSSSS SSSSSSSSSSSSSSSS SSSSSSSSSSSSSSSS
F|----------------|----------------|----------------|----------------||
C|----------------|----------------|----------------|----------------||
G|----------------|----------------|----------------|----------------||
D|0000000000000000|0000000000000000|0000000000000000|0000000000000000||

Riff 2:

  H       H        Q.    Q.    Q    Q.    Q.    Q    Q.    Q.    Q
F|----------------|2---------------|----------------|----------------|
C|----------------|------0-----2---|------------2---|------------0---|
G|0-------0-------|----------------|------0---------|------3---------|
D|----------------|----------------|3---------------|1---------------|

  H       H        Q.    Q.    Q    Q.    Q.    Q    Q.    Q.    Q
F|----------------|2---------------|----------------|----------------||
C|----------------|------0---------|------------2---|------------0---||
G|0-------0-------|------------3---|------0---------|------3---------||
D|----------------|----------------|3---------------|1---------------||

Chorus:

  H       H        H       H        H       H        H       H
F|----------------|3---------------|--------5-------|----------------|
C|--------3-------|--------0-------|2---------------|--------5-------|
G|0---------------|----------------|----------------|3---------------|
D|----------------|----------------|----------------|----------------|

  E E E E E E E E  E E E E E E E E  E E E E E E E E  E E E E E E E E
F|----------------|----------------|----------------|----------------|
C|10------9-------|10------10--9---|10------9-------|10------10--9---|
G|--7-0-0---7-0-0-|--7-0-0---7---R-|--7-0-0---7-0-0-|--7-0-0---7---R-|
D|----------------|----------------|----------------|----------------|

  H       H        H       H        H       H        H       H
F|----------------|3---------------|--------5-------|----------------|
C|--------3-------|--------0-------|2---------------|--------5-------|
G|0---------------|----------------|----------------|3---------------|
D|----------------|----------------|----------------|----------------|

  E E E E E E E E  E E E E E E E E  E E E E E E E E  E E E E E E E E
F|----------------|----------------|----------------|----------------|
C|10------9-------|10------10--9---|10------9-------|10------10--9---|
G|--7-0-0---7-0-0-|--7-0-0---7---R-|--7-0-0---7-0-0-|--7-0-0---7---R-|
D|----------------|----------------|----------------|----------------|

  H       H        H       H        H       H        H       H
F|----------------|3---------------|--------5-------|----------------|
C|--------3-------|--------0-------|2---------------|--------5-------|
G|0---------------|----------------|----------------|3---------------|
D|----------------|----------------|----------------|----------------|

  E E E E E E E E  E E E E E E E E  E E E E E E E E  E E E E E E E E
F|----------------|----------------|----------------|----------------||
C|10------9-------|10------10--9---|10------9-------|10------10--9---||
G|--7-0-0---7-0-0-|--7-0-0---7---R-|--7-0-0---7-0-0-|--7-0-0---7---R-||
D|----------------|----------------|----------------|----------------||

Slow:

6/4                                5/4              6/4

  W.              +W.               H.     +H       +W.
F|----------------|----------------|----------------|----------------||
C|----------------|----------------|----------------|----------------||
G|----------------|----------------|----------------|----------------||
D|0---------------|----------------|1---------------|----------------||

All the Traps...:

4/4

  E E E E E E E E  E E E E E E Q    E SSSSSSSSSSSSSS SSSSE E H
F|----------------|----------------|----------------|----------------|
C|----------------|----------------|----------------|----------------|
G|--------7-7-----|----5---8---7---|----------------|----5-0-7-------|
D|0-0-0-0-----0-0-|0-0---6---5-----|0-00000000000000|0000------------|

  E E E E E E E E  E E E E E E Q    E SSSSSSSSSSSSSS SSSSE E H
F|----------------|----------------|----------------|----------------|
C|----------------|----------------|----------------|----------------|
G|------------7-7-|----5---8---7---|----------------|----5-0-7-------|
D|0-0-0-0-0-0-----|0-0---6---5-----|0-00000000000000|0000------------|

  E E E E E E E E  E E E E E E Q    E SSSSSSSSSSSSSS SSSSE E H
F|----------------|----------------|----------------|----------------|
C|----------------|----------------|----------------|----------------|
G|------------7-7-|----5---8---7---|----------------|----5-0-7-------|
D|0-0-0-0-0-0-----|0-0---6---5-----|0-00000000000000|0000------------|

  E E E E E E E E  E E E E E E Q    E SSSSSSSSSSSSSS SSSSE E H
F|----------------|----------------|----------------|----------------||
C|----------------|----------------|----------------|----------------||
G|------------7-7-|----5---8---7---|----------------|----5-0-7-------||
D|0-0-0-0-0-0-----|0-0---6---5-----|0-00000000000000|0000------------||

Tapping Part:

8/4

  W      +W        W      +W        W      +W        W      +W
F|----------------|----------------|----------------|----------------|
C|----------------|----------------|----------------|----------------|
G|----------------|----------------|----------------|6---------------|
D|5---------------|5---------------|4---------------|----------------|

  W      +W        W      +W        W      +W        W      +W
F|----------------|----------------|----------------|----------------||
C|----------------|----------------|----------------|----------------||
G|----------------|----------------|----------------|6---------------||
D|5---------------|5---------------|4---------------|----------------||

Solo:

4/4

  W                W                W                W
F|----------------|----------------|----------------|----------------|
C|----------------|----------------|----------------|----------------|
G|----------------|6---------------|----------------|7---------------|
D|4---------------|----------------|5---------------|----------------|

  W                W                W               +W
F|----------------|----------------|----------------|----------------|
C|----------------|----------------|----------------|----------------|
G|----------------|7---------------|6---------------|----------------|
D|7---------------|----------------|----------------|----------------|

  W                W                W                W
F|----------------|----------------|----------------|----------------|
C|----------------|----------------|----------------|----------------|
G|----------------|6---------------|----------------|7---------------|
D|4---------------|----------------|5---------------|----------------|

  W                W                W               +W
F|----------------|----------------|----------------|----------------||
C|----------------|----------------|----------------|----------------||
G|----------------|7---------------|6---------------|----------------||
D|7---------------|----------------|----------------|----------------||

Riff 1:

  E E E E+H        E E E E+H        E E E E+H        Q   Q   Q   Q
F|----------------|----------------|----------------|----------------|
C|----------------|----------------|----------------|----------------|
G|------7---------|------6---------|------7---------|2---1-----------|
D|0-0-0-----------|0-0-0-----------|0-0-0-----------|--------1---3---|

  E E E E+H        E E E E+H        E  E E E  E E E E  E E E E E E E E
F|----------------|----------------|10-9-7------------|-----------------|
C|----------------|----------------|-------10-9-7-6---|--------6-7-9-10-|
G|------7---------|------6---------|----------------8-|7-5-7-8----------|
D|0-0-0-----------|0-0-0-----------|------------------|-----------------|

  E E E E+H        E E E E+H        E E E E+H        Q   Q   Q   Q
F|----------------|----------------|----------------|----------------|
C|----------------|----------------|----------------|----------------|
G|------7---------|------6---------|------7---------|2---1-----------|
D|0-0-0-----------|0-0-0-----------|0-0-0-----------|--------1---3---|

  E E E E+H        E E E E+H        E E E E+H        Q   Q   Q   Q
F|----------------|----------------|----------------|----------------||
C|----------------|----------------|----------------|----------------||
G|------7---------|------6---------|------7---------|2---1-----------||
D|0-0-0-----------|0-0-0-----------|0-0-0-----------|--------1---3---||

Riff 2:

  H       H        Q.    Q.    Q    Q.    Q.    Q    Q.    Q.    Q
F|----------------|2---------------|----------------|----------------|
C|----------------|------0-----2---|------------2---|------------0---|
G|0-------0-------|----------------|------0---------|------3---------|
D|----------------|----------------|3---------------|1---------------|

  H       H        Q.    Q.    Q    Q.    Q.    Q    Q.    Q.    Q
F|----------------|2---------------|----------------|----------------||
C|----------------|------0---------|------------2---|------------0---||
G|0-------0-------|------------3---|------0---------|------3---------||
D|----------------|----------------|3---------------|1---------------||

Interlude:  ****NOTE****

  SSSSSSSSSSSSSSSS SSSSSSSSSSSSSSSS SSSSSSSSSSSSSSSS SSSSSSSSSSSSSSSS
F|----------------|----------------|----------------|----------------|
C|----------------|----------------|----------------|----------------|
G|----------------|----------------|----------------|----------------|
D|0000000000000000|0000000000000000|0000000000000000|0000000000000000|

  SSSSSSSSSSSSSSSS SSSSSSSSSSSSSSSS SSSSSSSSSSSSSSSS SSSSSSSSSSSSSSSS
F|----------------|----------------|----------------|----------------||
C|----------------|----------------|----------------|----------------||
G|----------------|----------------|----------------|----------------||
D|0000000000000000|0000000000000000|0000000000000000|0000000000000000||

Riff 2:

  H       H        Q.    Q.    Q    Q.    Q.    Q    Q.    Q.    Q
F|----------------|2---------------|----------------|----------------|
C|----------------|------0-----2---|------------2---|------------0---|
G|0-------0-------|----------------|------0---------|------3---------|
D|----------------|----------------|3---------------|1---------------|

  H       H        Q.    Q.    Q    Q.    Q.    Q    Q.    Q.    Q
F|----------------|2---------------|----------------|----------------||
C|----------------|------0---------|------------2---|------------0---||
G|0-------0-------|------------3---|------0---------|------3---------||
D|----------------|----------------|3---------------|1---------------||

Chorus:

  H       H        H       H        H       H        H       H
F|----------------|3---------------|--------5-------|----------------|
C|--------3-------|--------0-------|2---------------|--------5-------|
G|0---------------|----------------|----------------|3---------------|
D|----------------|----------------|----------------|----------------|

  E E E E E E E E  E E E E E E E E  E E E E E E E E  E E E E E E E E
F|----------------|----------------|----------------|----------------|
C|10------9-------|10------10--9---|10------9-------|10------10--9---|
G|--7-0-0---7-0-0-|--7-0-0---7---R-|--7-0-0---7-0-0-|--7-0-0---7---R-|
D|----------------|----------------|----------------|----------------|

  H       H        H       H        H       H        H       H
F|----------------|3---------------|--------5-------|----------------|
C|--------3-------|--------0-------|2---------------|--------5-------|
G|0---------------|----------------|----------------|3---------------|
D|----------------|----------------|----------------|----------------|

  E E E E E E E E  E E E E E E E E  E E E E E E E E  E E E E E E E E
F|----------------|----------------|----------------|----------------|
C|10------9-------|10------10--9---|10------9-------|10------10--9---|
G|--7-0-0---7-0-0-|--7-0-0---7---R-|--7-0-0---7-0-0-|--7-0-0---7---R-|
D|----------------|----------------|----------------|----------------|

  H       H        H       H        H       H        H       H
F|----------------|3---------------|--------5-------|----------------|
C|--------3-------|--------0-------|2---------------|--------5-------|
G|0---------------|----------------|----------------|3---------------|
D|----------------|----------------|----------------|----------------|

  E E E E E E E E  E E E E E E E E  E E E E E E E E  E E E E E E E E
F|----------------|----------------|----------------|----------------|
C|10------9-------|10------10--9---|10------9-------|10------10--9---|
G|--7-0-0---7-0-0-|--7-0-0---7---R-|--7-0-0---7-0-0-|--7-0-0---7---R-|
D|----------------|----------------|----------------|----------------|

  H       H        H       H        H       H        H       H
F|----------------|3---------------|--------5-------|----------------||
C|--------3-------|--------0-------|2---------------|--------5-------||
G|0---------------|----------------|----------------|3---------------||
D|----------------|----------------|----------------|----------------||

Acoustic Solo:

  E E E E E E E E  E E E E E E E E  E E E E E E E E  E E E E E E E E
F|----------------|----------------|----------------|----------------|
C|10------9-------|10------10--9---|10------9-------|10------10--9---|
G|--7-0-0---7-0-0-|--7-0-0---7---R-|--7-0-0---7-0-0-|--7-0-0---7---R-|
D|----------------|----------------|----------------|----------------|

  H       H        H       H        H       H        H       H
F|----------------|3---------------|--------5-------|----------------|
C|--------3-------|--------0-------|2---------------|--------5-------|
G|0---------------|----------------|----------------|3---------------|
D|----------------|----------------|----------------|----------------|

  E E E E E E E E  E E E E E E E E  E E E E E E E E  E E E E E E E E
F|----------------|----------------|----------------|----------------||
C|10------9-------|10------10--9---|10------9-------|10------10--9---||
G|--7-0-0---7-0-0-|--7-0-0---7---R-|--7-0-0---7-0-0-|--7-0-0---7---R-||
D|----------------|----------------|----------------|----------------||

Fade Out:

  H       H        H       H        H       H        H       H
F|----------------|3---------------|--------5-------|----------------|
C|--------3-------|--------0-------|2---------------|--------5-------|
G|0---------------|----------------|----------------|3---------------|
D|----------------|----------------|----------------|----------------|

  E E E E E E E E  E E E E E E E E  E E E E E E E E  E E E E E E E E
F|----------------|----------------|----------------|----------------|
C|10------9-------|10------10--9---|10------9-------|10------10--9---|
G|--7-0-0---7-0-0-|--7-0-0---7---R-|--7-0-0---7-0-0-|--7-0-0---7---R-|
D|----------------|----------------|----------------|----------------|

  H       H        H       H        H       H        H       H
F|----------------|3---------------|--------5-------|----------------*|
C|--------3-------|--------0-------|2---------------|--------5-------*|
G|0---------------|----------------|----------------|3---------------*|
D|----------------|----------------|----------------|----------------*|


****NOTE****

On the Interlude, you can either play what I heard on the song or you can follow the 
both Guitars play which is:

  |--3--|
  Q  Q  Q H       +W                W                H       H
F|----------------|----------------|----------------|----------------|
C|0--2--3-0-------|----------------|----------------|----------------|
G|----------------|----------------|4---------------|--------3-------|
D|----------------|----------------|----------------|4---------------|

  |--3--|
  Q  Q  Q H       +W                W                H       H
F|----------------|----------------|----------------|----------------||
C|0--2--3-0-------|----------------|----------------|----------------||
G|----------------|----------------|----------------|4-------3-------||
D|----------------|----------------|2---------------|----------------||


Durations:

W = Whole Note
H = Half Note
Q = Quarter Note
E = Eighth Note
S = Sixteenth Note
T = Thirty-Second Note
X = Sixty-Fourth Note
a = Acciaccatura
+ = Tied Note
. = Dotted Note
R = Rest

Uncapitalized letters represent Staccato Notes (1/2 duration)

Triplets are notated above the duration line by a |--3--|

Duration letters will always appear directly above the note/fret number it
represents the duration for.


Bars:

 |  - bar
||  - double bar
||o - repeat start
o|| - repeat end
*|  - double bar (ending)


If you have any questions about the tab feel free to send me an e-mail.

            
            
Suggest correction
Creating personal tab
Creating personal tab
You can edit any tab online and save it as your Personal.

You can edit, replace or remove any tab part or add personal notes – all changes will be seen only by you.

Personal tabs can be accessed anytime from any device, even offline.
Learn more »
comments
print report bad tab
2 comments total.
0 reply
arrell 229 Nov 15, 2008 02:52 AM

Great tab, serving me very well atm.

0 reply
Blofeso 10 Oct 29, 2013 05:43 AM

Killer tab for a killer song.

guest
Wanna post a correction for this tab? Suggest correction