Oops, an error
Loading. Please wait.

Destiny bass

version 1
version 1

Whole song

Interactive

by Death
322 views 3 this week
no commentswrite comment
1 2 3 4 5
2 more votes to show rating
add to favorites
×
Save as Personal and add changes to this tab that will be seen only by you. Learn more ›
×
You can save this tab as Personal to edit and correct it or add notes. All changes will be seen only by you. Learn more »
launch autoscroll
font size
0
reset
guitar tuner
backing track
0:00
0:00
edit
Autoscroll
slow
fast
+/-
esc
set tempo
stop
Author
Destiny
by Death
composed by Chuck Schuldiner
transcribed by Nicol Jocic
copywrite to Death


h = hammer
p = pull off
/ = slide up
\ = slide down

Additional Notes/Details:
Tuning: D standard
Key of the song: D minor
Duration: 4 minutes 5 seconds
Type of song: standard song
Album: Individual Thought Patterns
Year:  1993
Track number: 8
Label: Relativity Records
Produced by: Chuck Schuldiner, Scott Burns 
Engineered by: Scott Burns
Mastered by: Alan Douches





Intro: no bass line, wait...

Verse 1:

            (played only once)
F|----------------------|
C|----------------------|
G|----------------------|
D|4--3--3--3--3--3--4--3|


F|-----------------------------------------|
C|------------------------1--0-------------|
G|------------------------------1--2--1h2p1|                                                      
D|4--3--3--3--3--3--4--3-------------------|   x7 


Verse 2:


F|----------------------------------------------------9--------11----------12------------------|
C|2--4--5-----------2--4-------------5-------------9--------9----------12------10--9-----------|
G|---------2--3--5--------2-------5-----5-------7--------9---------10-----------------10--9----|
D|---------------------------3-------------3-------------------------------------------------10|


F|--------------------7/9-----------------------------------|
C|----------7--9--10-------9--------------------------------|
G|7--9--10--------------------10--------10----9--10-----7---|                                     
D|----------------------------------10---------------8-----7|   x2 


Chorus:

F|8-----8------------------------------8--------------------|
C|---6-----6--8--9----6--7--8-------8-----6--8--9----6--7--8|
G|-------------------------------6--------------------------|
D|----------------------------------------------------------|


F|------7------------------------------7--------------------|
C|---7-----6--8--9----6--7--8-------7-----6--8--9----6--7--8|
G|5------------------------------5--------------------------|
D|----------------------------------------------------------|


F|--------13--------------------------------------13--------------------------|
C|----13------11--13--14----11--12--13--------13------11--13--14----11--12--13|
G|11--------------------------------------11----------------------------------|
D|----------------------------------------------------------------------------|


F|--------12--------------------------------------12--------------------------|
C|----12------11--13--14----11--12--13--------12------11--13--14----11--12--13|
G|10--------------------------------------10----------------------------------|
D|----------------------------------------------------------------------------|


Guitar Solo:

F|----------------------------------------------|
C|----------------------------------------------|
G|0--0--0--0--0--0--0--0--0--0--0--0--0--0--0--0|
D|----------------------------------------------|


F|----------------------------------------------|
C|----------------------------------------------|
G|4--4--4--4--4--4--4--4--4--4--4--4--4--4--4--4|
D|----------------------------------------------|


F|----------------------------------------------|
C|----------------------------------------------|
G|----------------------------------------------|
D|4--4--4--4--4--4--4--4--4--4--4--4--4--4--4--4|

              (first time ending)    (second time ending)
F|4h6--6--6--6--6------------------||4h5--5--5--5--5------------------|
C|---------------------------------||---------------------------------|
G|---------------------------------||---------------------------------|            
D|-----------------3--3--3--3--3--3||-----------------3--3--3--3--3--3|   x4

(third and fourth time ending)
|3h5--5--5--5--5--3h5--5--5--5--5----------------------------------|
|----------------------------------3h5--5--5--5--5--3h5--5--5--5--5|
|------------------------------------------------------------------|
|------------------------------------------------------------------|


Verse 3:

F|-----------------------------------------------------------------------------------0------|
C|---------------------------3--2-------------------------------------------3--2------------|
G|0--0--0--0--5--0--2--3--0--------3--2--0-------0--0--0--0--5--0--2--3--0--------3-----0---|    
D|------------------------------------------4----------------------------------------------4|   x2


F|------------------------------10--9---------------|
C|-------------12-----9--10------------10--9--------|
G|12--0--0--0------0---------0----------------12--11|
D|--------------------------------------------------|


F|------------------------------10--9------------------|
C|-------------12-----9--10------------10--9----------9|
G|10--0--0--0------0---------0----------------12--11---|
D|-----------------------------------------------------|


F|------------------------------10--9---------------|
C|-------------12-----9--10------------10--9--------|
G|12--0--0--0------0---------0----------------12--11|
D|--------------------------------------------------|

                            (play very quickly!- - - - - - - - - - - - - - - - ¬)
F|---------------------------12p10p9h10p9------9--------------------------------|
C|-------------12-----9--10----------------12-----12--10h12p10---------9h12-----|
G|10--0--0--0------0--------------------------------------------11h12-----------|
D|---------------------------------------------------------------------------13\|


back to Verse 1:

            (played only once)
F|----------------------|
C|----------------------|
G|----------------------|
D|4--3--3--3--3--3--4--3|

F|-----------------------------------9h10---|
C|------------------------1--0--7h8--------8|
G|4--3--3--3--3--3--4--3--------------------|
D|------------------------------------------|

F|-----------------------------------------|
C|------------------------1--0-------------|
G|------------------------------1--2--1h2p1|                                                      
D|4--3--3--3--3--3--4--3-------------------|  x6 


Verse 2:

F|----------------------------------------------------9--------11----------12------------------|
C|2--4--5-----------2--4-------------5-------------9--------9----------12------10--9-----------|
G|---------2--3--5--------2-------5-----5-------7--------9---------10-----------------10--9----|
D|---------------------------3-------------3-------------------------------------------------10|


F|--------------------7/9-----------------------------------|
C|----------7--9--10-------9--------------------------------|
G|7--9--10--------------------10--------10----9--10-----7---|                                     
D|----------------------------------10---------------8-----7|   x2



Chorus:

F|8-----8------------------------------8--------------------|
C|---6-----6--8--9----6--7--8-------8-----6--8--9----6--7--8|
G|-------------------------------6--------------------------|
D|----------------------------------------------------------|


F|------7------------------------------7--------------------|
C|---7-----6--8--9----6--7--8-------7-----6--8--9----6--7--8|
G|5------------------------------5--------------------------|
D|----------------------------------------------------------|


F|--------13--------------------------------------13--------------------------|
C|----13------11--13--14----11--12--13--------13------11--13--14----11--12--13|
G|11--------------------------------------11----------------------------------|
D|----------------------------------------------------------------------------|


F|--------12--------------------------------------12--------------------------|
C|----12------11--13--14----11--12--13--------12------11--13--14----11--12--13|
G|10--------------------------------------10----------------------------------|
D|----------------------------------------------------------------------------|

end

            
            
Suggest correction
Creating personal tab
Creating personal tab
You can edit any tab online and save it as your Personal.

You can edit, replace or remove any tab part or add personal notes – all changes will be seen only by you.

Personal tabs can be accessed anytime from any device, even offline.
Learn more »
Give kudos to tab author, rate the tab!
1 2 3 4 5
comments
print report bad tab
guest
You may want to rate the tab now too:
select rating
Wanna post a correction for this tab? Suggest correction