Oops, an error
Loading. Please wait.

Genetic Reconstruction bass

version 1
version 1

Whole song

Interactive

by Death
591 views 3 this week
no commentswrite comment
1 2 3 4 5
3 more votes to show rating
add to favorites
×
Save as Personal and add changes to this tab that will be seen only by you. Learn more ›
×
You can save this tab as Personal to edit and correct it or add notes. All changes will be seen only by you. Learn more »
launch autoscroll
font size
0
reset
guitar tuner
edit
Autoscroll
slow
fast
+/-
esc
set tempo
stop
Tab by: 6METAL6BASSIST6

Email: Petergriffinav@gmail.com

0:08

F|--------------------------------------------------------------------------------|
C|--------6-----------------------------------------------------------------------|
G|----4-------4-------------------------------------------------------------------|
D|4---------------3-3-3-3-3-3-3-3-3-3-3-3-3-3-3-3-6-6-6-6-6-6-6-6-6-6-6-6-6-6-6-6-|

F|------------------------------------------------------------------------|
C|----------------------------------------------------------------6-------|
G|------------------------------------------------------------4-------4---|
D|1---2---1-------1-1-1-1-1-1-1-1-1-1-1-1-1-1-1-1-1-1-1-1-4---------------|

F|----------------------------------------------------------------|
C|----------------------------------------------------------------|
G|----------------------------------------------------------------|
D|3-3-3-3-3-3-3-3-3-3-3-3-3-3-3-3-6-6-6-6-6-6-6-6-6-6-6-6-6-6-6-6-|

F|-----------------------------------------------------------------------|
C|----------------------------------------------------------------6------|
G|------------------------------------------------------------4------6---|
D|1---2---1-------1-1-1-1-1-1-1-1-1-1-1-1-1-1-1-1-1-1-1-1-4--------------|

F|----------------------------------------------------------------|
C|----------------------------------------------------------------|
G|----------------------------------------------------------------|
D|3-3-3-3-3-3-3-3-3-3-3-3-3-3-3-3-6-6-6-6-6-6-6-6-6-6-6-6-6-6-6-6-|

F|-----------------------------------------------------------------------|
C|----------------------------------------------------------------6------|
G|------------------------------------------------------------4------6---|
D|1---2---1-------1-1-1-1-1-1-1-1-1-1-1-1-1-1-1-1-1-1-1-1-4--------------|

0:31

F|----------------------------------------------------------------|.
C|----------------------------------------------------------------|.
G|----------------88888888777733331111111111111111----------------|.
D|0000000000000000--------------------------------2222222233331111|.
                                                                   . x2
F|----------------------------------------------------------------|.
C|----------------------------------------------------------------|.
G|----------------88888888777733334444444444444444----------------|.
D|0000000000000000--------------------------------2222222233331111|.

0:57

F|------------------------------------------------|.
C|--------7---6-------------------6---5-----------|.
G|----7-----------8---7-------6-------------------|.
D|5-----------------------4-----------------------|.
                                                   . x4
F|------------------------------------------------|.
C|--------7---6-----------------------------------|.
G|----7-----------8---7-------6-------4-------7---|.
D|5-----------------------4-------7-------6-------|.

1:20

F|----------------------------------------------------------------|.
C|----------------------------------------------------------------|.
G|----------------2---------------1-------------------------------|.
D|0---------------------------------------1---------------3---4---|.
                                                                   . x2
F|----------------------------------------------------------------|.
C|----------------------------------------------------------------|.
G|----------------2---------------1-------------------------------|.
D|0---------------------------------------1---------------4---3---|.

1:40

F|----------------------------------------------------------------|
C|----------------------------------------------------------------| x4
G|--------------------------------3333333333333333----------------|
D|55555555555555554444444444444444----------------2222222222222222|

F|------------------------------------------------------------------------|
C|------------------------------------------------------------------------| x4
G|------------------------------------------------------------------------|
D|1-1-1-1-1-1-1-1-4-4-4-4-4-4-4-4-3-3-3-3-0-0-0-0-0-0-0-0-0-0-0-0-0-0-0-0-|

2:28

F|------------------------------------------------------------|
C|------------------------------------------------------------|
G|------------------------------------------------------------|
D|0-----------------------------------------------1---2---1---|

F|------------------------------------------------------------|
C|------------------------------------------------------------|
G|------------------------------------------------------------|
D|------------------------------------------------1---2---1---|

F|--------------------------------------------------------|
C|--------------------------------------------------------| x4
G|--------2-----------1-----------1-----------------------|
D|3-0-0-0-----3-0-0-0-----3-0-0-0-----3-0-0-0-1---2---1---|

2:47

F|----------------------------------------------------------------|.
C|----------------------------------------------------------------|.
G|----2---3-------2---3-------2-------2---3-------3---2-------2---|.
D|0-----------0-----------0-------1-----------1-----------3-------|.
                                                                   . x2
F|----------------------------------------------------------------|.
C|----------------------------------------------------------------|.
G|----2---3-------2---3-------2-------2---3-------3---2-----------|.
D|0-----------0-----------0-------1-----------1-----------3---1---|.

F|----------------------------------------------------------------|
C|----------------------------------------------------------------|
G|----2---3-------2---3-------2-------2---3-------3---2-------2---|
D|0-----------0-----------0-------1-----------1-----------3-------|

F|------------------------------------------------|
C|------------------------------------------------|
G|----2---3-------2---3-------2-------2---3-------|
D|0-----------0-----------0-------1-----------1---|

3:10

F|--------------------------------------------------------------------------------|
C|--------6-----------------------------------------------------------------------|
G|----4-------4-------------------------------------------------------------------|
D|4---------------3-3-3-3-3-3-3-3-3-3-3-3-3-3-3-3-6-6-6-6-6-6-6-6-6-6-6-6-6-6-6-6-|

F|------------------------------------------------------------------------|
C|----------------------------------------------------------------6-------|
G|------------------------------------------------------------4-------4---|
D|1---2---1-------1-1-1-1-1-1-1-1-1-1-1-1-1-1-1-1-1-1-1-1-4---------------|

F|----------------------------------------------------------------|
C|----------------------------------------------------------------|
G|----------------------------------------------------------------|
D|3-3-3-3-3-3-3-3-3-3-3-3-3-3-3-3-6-6-6-6-6-6-6-6-6-6-6-6-6-6-6-6-|

F|-----------------------------------------------------------------------|
C|----------------------------------------------------------------6------|
G|------------------------------------------------------------4------6---|
D|1---2---1-------1-1-1-1-1-1-1-1-1-1-1-1-1-1-1-1-1-1-1-1-4--------------|

F|----------------------------------------------------------------|
C|----------------------------------------------------------------|
G|----------------------------------------------------------------|
D|3-3-3-3-3-3-3-3-3-3-3-3-3-3-3-3-6-6-6-6-6-6-6-6-6-6-6-6-6-6-6-6-|

F|-----------------------------------------------------------------------|
C|----------------------------------------------------------------6------|
G|------------------------------------------------------------4------6---|
D|1---2---1-------1-1-1-1-1-1-1-1-1-1-1-1-1-1-1-1-1-1-1-1-4--------------|

F|----------------------------------------------------------------|
C|----------------------------------------------------------------|
G|----------------------------------------------------------------|
D|3-3-3-3-3-3-3-3-3-3-3-3-3-3-3-3-6-6-6-6-6-6-6-6-6-6-6-6-6-6-6-6-|

F|-----------------------------------------------------------------------|
C|----------------------------------------------------------------6------|
G|------------------------------------------------------------4------6---|
D|1---2---1-------1-1-1-1-1-1-1-1-1-1-1-1-1-1-1-1-1-1-1-1-4--------------|

3:41

F|----------------------------------------------------------------|.
C|----------------------------------------------------------------|.
G|----------------88888888777733331111111111111111----------------|.
D|0000000000000000--------------------------------2222222233331111|.
                                                                   . x2
F|----------------------------------------------------------------|.
C|----------------------------------------------------------------|.
G|----------------88888888777733334444444444444444----------------|.
D|0000000000000000--------------------------------2222222233331111|.

4:06

F|------------------------------------------------|.
C|--------7---6-------------------6---5-----------|.
G|----7-----------8---7-------6-------------------|.
D|5-----------------------4-----------------------|.
                                                   . x4
F|------------------------------------------------|.
C|--------7---6-----------------------------------|.
G|----7-----------8---7-------6-------4-------7---|.
D|5-----------------------4-------7-------6-------|.

4:30

F|----------------------------------------------------------------|.
C|----------------------------------------------------------------|.
G|----------------2---------------1-------------------------------|.
D|0---------------------------------------1---------------3---4---|.
                                                                   . x2
F|----------------------------------------------------------------|.
C|----------------------------------------------------------------|.
G|----------------2---------------1-------------------------------|.
D|0---------------------------------------1---------------4---3---|.

            
            
Suggest correction
Creating personal tab
Creating personal tab
You can edit any tab online and save it as your Personal.

You can edit, replace or remove any tab part or add personal notes – all changes will be seen only by you.

Personal tabs can be accessed anytime from any device, even offline.
Learn more »
Give kudos to tab author, rate the tab!
1 2 3 4 5
comments
print report bad tab
guest
You may want to rate the tab now too:
select rating
Wanna post a correction for this tab? Suggest correction