Oops, an error
Loading. Please wait.

Leprosy tab

version 2
version 2

Whole song

Interactive

by Death
2,450 views 1 this week
no commentswrite comment
1 2 3 4 5
1 last vote to show rating
add to favorites
×
Save as Personal and add changes to this tab that will be seen only by you. Learn more ›
×
You can save this tab as Personal to edit and correct it or add notes. All changes will be seen only by you. Learn more »
launch autoscroll
font size
0
reset
how to read this tab
guitar tuner
backing track
0:00
0:00
edit
Autoscroll
slow
fast
+/-
esc
set tempo
stop
#----------------------------------PLEASE NOTE---------------------------------#
#This file is the author's own work and represents their interpretation of the #
#song. You may only use this file for private study, scholarship, or research. #
#------------------------------------------------------------------------------#

LEPROSY
As recorded by Death
(From the 1988 Album LEPROSY)

Transcribed by Ben Price
        

Words and Music by Chuck Shuldiner
Arranged by Death

Gtr I (D G C F A D) - 'Untitled'
Gtr II (D G C F A D) - 'Untitled'

    Q=85
   4/4
    Gtr I
    Q  Q  H      Q  Q  H
||-------------|-------------||-|
||o------------|------------o||-|
||--3--4--7----|-2--3--6-----||-|
||--3--4--7----|-2--3--6-----||-|
||o-1--2--5----|-0--1--4----o||-|
||-------------|-------------||-|
|
|   Gtr II
|   Q  Q  H      Q  Q  H
||-------------|-------------||-|
||o------------|------------o||-|
||--3--4--7----|-2--3--6-----||-|
||--3--4--7----|-2--3--6-----||-|
||o-1--2--5----|-0--1--4----o||-|
||-------------|-------------||-|


    |-3-| |-3-| |-3-| |-3-|   |-3-| |-3-| |-3-| |-3-|
    E E E E E E E E E E E E   E E E E E E E E E E E E
||--------------------------|---------------------------||
||o-------------------------|--------------------------o||
||----------------2-3---2-3-|---------------------------||
||----3-4---3-4-0-----0-----|---2-3---2-3---6-7---6-7---||
||o-1-----1-----------------|-0-----0-----4-----4------o||
||--------------------------|---------------------------||
|
|   Q     Q     H             Q     Q     H
||--------------------------|---------------------------||
||o-------------------------|--------------------------o||
||--3-----4-----7-----------|-2-----3-----6-------------||
||--3-----4-----7-----------|-2-----3-----6-------------||
||o-1-----2-----5-----------|-0-----1-----4------------o||
||--------------------------|---------------------------||


    Gtrs I, II
    |-3-| |-3-| |-3-| |-3-|   |-3-| |-3-| |-3-| |-3-|
    E E E E E E E E E E E E   E E E E E E E E E E E E
||--------------------------|-----------------------------||
||o-------------------------|----------------------------o||
||----------------2-3---2-3-|-----------------------------||
||----3-4---3-4-0-----0-----|---2-3---2-3---6-7---6-7-----||
||o-1-----1-----------------|-0-----0-----4-----4--------o||
||--------------------------|-----------------------------||


    Q=95
    $
    PM-----------------------------------------------
    |-3-| |-3-| |-3-| |-3-| |-3-| |-3-| |-3-| |-3-|
    S S S S S S S S S S S S S S S S S S S S S S S S
||--------------------------------------------------|
||o-------------------------------------------------|
||--------------------------------------------------|
||--------------------------------------------------|
||o-0-0-0-0-0-0-0-0-0-0-0-0-4-4-4-4-4-4-------------|
||--------------------------------------4-4-4-4-4-4-|


 -----------------------------------------------|
  |-3-| |-3-| |-3-| |-3-| |-3-| |-3-| |-3-| |-3-|
  S S S S S S S S S S S S S S S S S S S S S S S S
|--------------------------------------------------|
|--------------------------------------------------|
|--------------------------------------------------|
|--------------------------------------------------|
|-3-3-3-3-3-3-3-3-3-3-3-3-3-3-3-3-3-3-3-3-3-3-3-3--|
|--------------------------------------------------|


  PM-----------------------------------------------
  |-3-| |-3-| |-3-| |-3-| |-3-| |-3-| |-3-| |-3-|
  S S S S S S S S S S S S S S S S S S S S S S S S
|-------------------------------------------------|
|-------------------------------------------------|
|-------------------------------------------------|
|-------------------------------------------------|
|-------------------------2-2-2-2-2-2-------------|
|-3-3-3-3-3-3-3-3-3-3-3-3-------------2-2-2-2-2-2-|


 -----------------------------------------------|
  |-3-| |-3-| |-3-| |-3-| |-3-| |-3-| |-3-| |-3-|
  S S S S S S S S S S S S S S S S S S S S S S S S   3x
|---------------------------------------------------||
|--------------------------------------------------o||
|---------------------------------------------------||
|---------------------------------------------------||
|-1-1-1-1-1-1-1-1-1-1-1-1-1-1-1-1-1-1-1-1-1-1-1-1--o||
|---------------------------------------------------||


  PM-----------------------------------------------
  |-3-| |-3-| |-3-| |-3-| |-3-| |-3-| |-3-| |-3-|
  S S S S S S S S S S S S S S S S S S S S S S S S
|-------------------------------------------------|
|-------------------------------------------------|
|-------------------------------------------------|
|-------------------------------------------------|
|-0-0-0-0-0-0-0-0-0-0-0-0-4-4-4-4-4-4-------------|
|-------------------------------------4-4-4-4-4-4-|


 -----------------------------------------------|
  |-3-| |-3-| |-3-| |-3-| |-3-| |-3-| |-3-| |-3-|
  S S S S S S S S S S S S S S S S S S S S S S S S
|--------------------------------------------------|
|--------------------------------------------------|
|--------------------------------------------------|
|--------------------------------------------------|
|-3-3-3-3-3-3-3-3-3-3-3-3-3-3-3-3-3-3-3-3-3-3-3-3--|
|--------------------------------------------------|


  PM-----------------------------------------------
  |-3-| |-3-| |-3-| |-3-| |-3-| |-3-| |-3-| |-3-|
  S S S S S S S S S S S S S S S S S S S S S S S S
|-------------------------------------------------|
|-------------------------------------------------|
|-------------------------------------------------|
|-------------------------------------------------|
|-------------------------2-2-2-2-2-2-------------|
|-3-3-3-3-3-3-3-3-3-3-3-3-------------2-2-2-2-2-2-|


 -----------------------|
  |-3-| |-3-| |-3-| |-3-| |-3-| |-3-|
  S S S S S S S S S S S S E E E E E E
|----------------------------------------|
|----------------------------------------|
|----------------------------------------|
|-------------------------4-3-1-3--------|
|-1-1-1-1-1-1-1-1-1-1-1-1---------4-3----|
|----------------------------------------|


    Q=220
    W          H    Q  Q    W          +H     H
||-----------|------------|----------|------------|
||o----------|------------|----------|------------|
||-----------|-4----5-----|----------|------------|
||--3--------|-4----5--5--|-2--------|-(2)----2---|
||o-3--------|-2----3--5--|-2--------|-(2)----2---|
||--1--------|---------3--|-0--------|-(0)----0---|


  W          H    Q  Q    W          +H     H     3x
|----------|------------|----------|--------------||
|----------|------------|----------|-------------o||
|----------|-5----4-----|----------|--------------||
|-3--------|-5----4--5--|-2--------|-(2)----2-----||
|-3--------|-3----2--5--|-2--------|-(2)----2----o||
|-1--------|---------3--|-0--------|-(0)----0-----||


  W          H    Q  Q    W          +H     H      W          H    Q  Q
|----------|------------|----------|-------------|----------|-------------|
|----------|------------|----------|-------------|----------|-------------|
|----------|-4----5-----|----------|-------------|----------|-5----4------|
|-3--------|-4----5--5--|-2--------|-(2)----2----|-3--------|-5----4--5---|
|-3--------|-2----3--5--|-2--------|-(2)----2----|-3--------|-3----2--5---|
|-1--------|---------3--|-0--------|-(0)----0----|-1--------|---------3---|


  Q=142
  Gtr I
  PM--------------------------------------------------------------|
  S S S S S S S S S S S S S S S S   S S S S S S S S S S S S S S S S
|---------------------------------|---------------------------------|
|---------------------------------|---------------------------------|
|---------------------------------|---------------------------------|
|---------------------------------|---------------------------------|
|-------------6-6-5-5-------------|-------------6-6-5-5-------------|
|-4-4-6-6-7-7---------6-6-7-7-6-6-|-4-4-6-6-7-7---------6-6-7-7-6-6-|
|
| Gtr II
| E   E   Q       H                 H               Q       E   E
|---------------------------------|---------------------------------|
|---------------------------------|---------------------------------|
|---------------------------------|---------------------------------|
|-2-------------------------------|---------------------------------|
|-2-------------------------------|-----------------------------1---|
|-0-------------------------------|---------------------------------|


  Gtrs I, II
  PM--------------------------------------------------------------|
  S S S S S S S S S S S S S S S S   S S S S S S S S S S S S S S S S
|---------------------------------|-----------------------------------|
|---------------------------------|-----------------------------------|
|---------------------------------|-----------------------------------|
|---------------------------------|-----------------------------------|
|-------------5-5-4-4-------------|-------------5-5-4-4---------------|
|-3-3-5-5-6-6---------5-5-6-6-5-5-|-3-3-5-5-6-6---------5-5-6-6-5-5---|


  PM--------------------------------------------------------------|
  S S S S S S S S S S S S S S S S   S S S S S S S S S S S S S S S S
|---------------------------------|-----------------------------------|
|---------------------------------|-----------------------------------|
|---------------------------------|-----------------------------------|
|-------------7-7-6-6-------------|-------------7-7-6-6---------------|
|-5-5-7-7-8-8---------7-7-8-8-7-7-|-5-5-7-7-8-8---------7-7-8-8-7-7---|
|---------------------------------|-----------------------------------|


  PM------------------------------------------|
  S S S S S S S S S S S S S S S S   S S S S S S  E   E   E   E   E
|---------------------------------|------------------------------------|
|---------------------------------|------------------------------------|
|---------------------------------|------------------------------------|
|-------------6-6-5-5-------------|-------------[6]-[5]----------------|
|-4-4-6-6-7-7---------6-6-7-7-6-6-|-4-4-6-6-7-7---------[6]-[7]-[6]----|
|---------------------------------|------------------------------------|


  PM-----------------------------------------------------------------
  S S S S S S S S S S S S S S S S   S S S S S S S S S S S S S S S S
|---------------------------------|---------------------------------|
|---------------------------------|---------------------------------|
|---------------------------------|---------------------------------|
|---------------------------------|---------------------------------|
|-------------6-6-5-5-------------|-------------6-6-5-5-------------|
|-4-4-6-6-7-7---------6-6-7-7-6-6-|-4-4-6-6-7-7---------6-6-7-7-6-6-|


 -----------------------------------------------------------------|
  S S S S S S S S S S S S S S S S   S S S S S S S S S S S S S S S S
|---------------------------------|------------------------------------|
|---------------------------------|------------------------------------|
|---------------------------------|------------------------------------|
|---------------------------------|------------------------------------|
|-------------5-5-4-4-------------|-------------5-5-4-4----------------|
|-3-3-5-5-6-6---------5-5-6-6-5-5-|-3-3-5-5-6-6---------5-5-6-6-5-5----|


  PM-----------------------------------------------------------------
  S S S S S S S S S S S S S S S S   S S S S S S S S S S S S S S S S
|---------------------------------|---------------------------------|
|---------------------------------|---------------------------------|
|---------------------------------|---------------------------------|
|-------------7-7-6-6-------------|-------------7-7-6-6-------------|
|-5-5-7-7-8-8---------7-7-8-8-7-7-|-5-5-7-7-8-8---------7-7-8-8-7-7-|
|---------------------------------|---------------------------------|


 ---------------------------------------------|
  S S S S S S S S S S S S S S S S   S S S S S S  E   E   E   E   E
|---------------------------------|------------------------------------|
|---------------------------------|------------------------------------|
|---------------------------------|------------------------------------|
|-------------6-6-5-5-------------|-------------[6]-[5]----------------|
|-4-4-6-6-7-7---------6-6-7-7-6-6-|-4-4-6-6-7-7---------[6]-[7]-[6]----|
|---------------------------------|------------------------------------|


  Q=220
  Gtr I
  S S S S S S S S E S S S S S S   E S S S S S S E S S S S S S
|-------------------------------|--------------------------------|
|-------------------------------|--------------------------------|
|-------------------------------|--------------------------------|
|-----------------5-------------|-4-------------5----------------|
|-2-2-2-2-2-2-2-2---2-2-2-2-2-2-|---2-2-2-2-2-2---2-2-2-2-2-2----|
|-------------------------------|--------------------------------|
|
| Gtr II
| E E Q   H                       W
|-------------------------------|--------------------------------|
|-------------------------------|--------------------------------|
|-------------------------------|--------------------------------|
|-4-----------------------------|--------------------------------|
|-2-----------------------------|--------------------------------|
|-------------------------------|--------------------------------|


  E S S S S S S E S S S S S S   E S S S S S S Q  Q
|-----------------------------|-----------------------|
|-----------------------------|-----------------------|
|-----------------------------|-----------------------|
|-4-------------5-------------|-4-------------5--5----|
|---3-3-3-3-3-3---3-3-3-3-3-3-|---3-3-3-3-3-3-5--5----|
|-----------------------------|---------------3--3----|
|
| W                             H             Q  Q
|-----------------------------|-----------------------|
|-----------------------------|-----------------------|
|-----------------------------|-----------------------|
|-----------------------------|---------------5--5----|
|-----------------------------|---------------5--5----|
|-----------------------------|-xs============3--3----|


  Gtrs I, II
  S S S S S S S S E S S S S S S   E S S S S S S E S S S S S S
|-------------------------------|--------------------------------|
|-------------------------------|--------------------------------|
|-------------------------------|--------------------------------|
|-----------------5-------------|-4-------------5----------------|
|-2-2-2-2-2-2-2-2---2-2-2-2-2-2-|---2-2-2-2-2-2---2-2-2-2-2-2----|
|-------------------------------|--------------------------------|


  E S S S S S S E S S S S S S   E S S S S S S Q  Q
|-----------------------------|-----------------------|
|-----------------------------|-----------------------|
|-----------------------------|-----------------------|
|-4-------------5-------------|-4-------------5--5----|
|---3-3-3-3-3-3---3-3-3-3-3-3-|---3-3-3-3-3-3-5--5----|
|-----------------------------|---------------3--3----|


    S S S S S S S S E S S S S S S   E  S S S S S S E S S S S S S
||--------------------------------|---------------------------------|
||o-------------------------------|---------------------------------|
||--------------------------------|---------------------------------|
||--------------------------------|---------------------------------|
||o-----------------5-------------|-4--------------5----------------|
||--2-2-2-2-2-2-2-2---2-2-2-2-2-2-|----2-2-2-2-2-2---2-2-2-2-2-2----|


  E S S S S S S E S S S S S S   E S S S S S S Q  Q
|-----------------------------|------------------------||
|-----------------------------|-----------------------o||
|-----------------------------|------------------------||
|-----------------------------|---------------2--2-----||
|-4-------------5-------------|-4-------------2--2----o||
|---3-3-3-3-3-3---3-3-3-3-3-3-|---3-3-3-3-3-3-0--0-----||


    S S S S S S S S E S S S S S S   E S S S S S S E S S S S S S
||--------------------------------|--------------------------------|
||o-------------------------------|--------------------------------|
||--------------------------------|--------------------------------|
||------------------5-------------|-4-------------5----------------|
||o-2-2-2-2-2-2-2-2---2-2-2-2-2-2-|---2-2-2-2-2-2---2-2-2-2-2-2----|
||--------------------------------|--------------------------------|


                                                     To Coda
  E S S S S S S E S S S S S S   E S S S S S S Q  Q
|-----------------------------|-------------------------------||
|-----------------------------|------------------------------o||
|-----------------------------|-------------------------------||
|-4-------------5-------------|-4-------------5--5------------||
|---3-3-3-3-3-3---3-3-3-3-3-3-|---3-3-3-3-3-3-5--5-----------o||
|-----------------------------|---------------3--3------------||


    Q=122
    W          W          W          H.      E  E
||-----------|----------|----------|-----------------||
||o----------|----------|----------|----------------o||
||-----------|----------|----------|-----------------||
||--2--------|-6--------|-3--------|-5-------5--3----||
||o-2--------|-6--------|-3--------|-5-------5--3---o||
||--0--------|-4--------|-1--------|-3-------3--1----||


    PM--------------------------------------------------------------|
    S S S S S S S S S S S S S S S S   S S S S S S S S S S S S S S S S
||----------------------------------|----------------------------------|
||o---------------------------------|----------------------------------|
||----------------------------------|----------------------------------|
||----------------------------------|----------------------------------|
||o---------------------------------|----------------------------------|
||--0-0-0-0-0-0-0-0-0-0-0-0-0-0-0-0-|-4-4-4-4-4-4-4-4-4-4-4-4-4-4-4-4--|


  PM------------------------------------------------------|
  S S S S S S S S S S S S S S S S   S S S S S S S S S S S S E E     4x
|---------------------------------|---------------------------------||
|---------------------------------|--------------------------------o||
|---------------------------------|---------------------------------||
|---------------------------------|---------------------------------||
|---------------------------------|-------------------------5-3----o||
|-1-1-1-1-1-1-1-1-1-1-1-1-1-1-1-1-|-3-3-3-3-3-3-3-3-3-3-3-3-3-1-----||


    Q=220
    Gtr I
    H       H                         Q   Q   H
||----------7-----------------------|---------6------------------------|
||o-5-------------------------------|-8---7----------------------------|
||----------------------------------|----------------------------------|
||----------------------------------|----------------------------------|
||o---------------------------------|----------------------------------|
||----------------------------------|----------------------------------|
|
|   Gtr II
|   S S S S S S S S S S S S S S S S   S S S S S S S S S S S S S S S S
||----------------------------------|----------------------------------|
||o---------------------------------|----------------------------------|
||----------------------------------|----------------------------------|
||----------------------------------|----------------------------------|
||o-----------------2-2-2-2-2-2-2-2-|-----------------1-1-1-1-1-1-1-1--|
||--0-0-0-0-0-0-0-0-----------------|-3-3-3-3-2-2-2-2------------------|


  H       H                         Q   Q   Q   Q
|---------7-----------------------|---------6--------------------------||
|-5-------------------------------|-8---7-------6---------------------o||
|---------------------------------|------------------------------------||
|---------------------------------|------------------------------------||
|---------------------------------|-----------------------------------o||
|---------------------------------|------------------------------------||
|
| S S S S S S S S S S S S S S S S   S S S S S S S S S S S S S S S S
|---------------------------------|------------------------------------||
|---------------------------------|-----------------------------------o||
|---------------------------------|------------------------------------||
|---------------------------------|------------------------------------||
|-----------------2-2-2-2-2-2-2-2-|-----------------1-1-1-1-----------o||
|-0-0-0-0-0-0-0-0-----------------|-3-3-3-3-2-2-2-2---------1-1-1-1----||


  \1
  W                                  +W
|----------------------------------|-------------------------------------|
|----------------------------------|-------------------------------------|
|----------------------------------|-------------------------------------|
|----------------------------------|-------------------------------------|
|----------------------------------|-------------------------------------|
|-0--------------------------------|-(0)---------------------------------|
|
| S  S S S S S S S S S S S S S S S    S  S S S S S S S S S S S S S S S
|----------------------------------|-------------------------------------|
|----------------------------------|-------------------------------------|
|----------------------------------|-------------------------------------|
|----------------------------------|-------------------------------------|
|------------------2-2-2-2-2-2-2-2-|-------------------1-1-1-1-1-1-1-1---|
|-0--0-0-0-0-0-0-0-----------------|--3--3-3-3-2-2-2-2-------------------|


   ~~~~~~~~~~~~~~~~~~~~~~~~~~~~~~~~~~~~~~~~~
   W                                    +W
|-------------------------------------|-------------------------------------|
|-------------------------------------|-------------------------------------|
|-------------------------------------|-------------------------------------|
|-------------------------------------|-------------------------------------|
|-[7]b9r==============================|=(7)---------------------------------|
|-------------------------------------|-------------------------------------|
|
|  S    S S S S S S S S S S S S S S S    S  S S S S S S S S S S S S S S S
|-------------------------------------|-------------------------------------|
|-------------------------------------|-------------------------------------|
|-------------------------------------|-------------------------------------|
|-------------------------------------|-------------------------------------|
|---------------------2-2-2-2-2-2-2-2-|-------------------1-1-1-1-----------|
|--0----0-0-0-0-0-0-0-----------------|--3--3-3-3-2-2-2-2---------1-1-1-1---|


   ~~~~~~~~~~~~~~~~~~~~~~~~~~~~~~~~~~~~~~~~~~
   W                                     +W
|--------------------------------------|-------------------------------------|
|--------------------------------------|-------------------------------------|
|-[9]b11r==============================|=(9)---------------------------------|
|--------------------------------------|-------------------------------------|
|--------------------------------------|-------------------------------------|
|--------------------------------------|-------------------------------------|
|
|  S     S S S S S S S S S S S S S S S    S  S S S S S S S S S S S S S S S
|--------------------------------------|-------------------------------------|
|--------------------------------------|-------------------------------------|
|--------------------------------------|-------------------------------------|
|--------------------------------------|-------------------------------------|
|----------------------2-2-2-2-2-2-2-2-|-------------------1-1-1-1-1-1-1-1---|
|--0-----0-0-0-0-0-0-0-----------------|--3--3-3-3-2-2-2-2-------------------|


   ~~~~~~~~~~~~~~~~~~~~~~~~~~~~~~~~~~~~~~~~~~
   W                                     +W
|-24b26r==============================|=(24)---------------------------------|
|-------------------------------------|--------------------------------------|
|-------------------------------------|--------------------------------------|
|-------------------------------------|--------------------------------------|
|-------------------------------------|--------------------------------------|
|-------------------------------------|--------------------------------------|
|
|  S    S S S S S S S S S S S S S S S     S  S S S S S S S S S S S S S S S
|-------------------------------------|--------------------------------------|
|-------------------------------------|--------------------------------------|
|-------------------------------------|--------------------------------------|
|-------------------------------------|--------------------------------------|
|---------------------2-2-2-2-2-2-2-2-|--------------------1-1-1-1-----------|
|--0----0-0-0-0-0-0-0-----------------|---3--3-3-3-2-2-2-2---------1-1-1-1---|


  |-------3-------|
  Q      Q        Q     S S E.      E.
|------------------------------------------|
|------------------------------------------|
|-----------------------7-9-7--------------|
|-9-----10-------12----------------10------|
|------------------------------------------|
|------------------------------------------|
|
| S S S    S S S    S S S S S  S S  S  S S
|------------------------------------------|
|------------------------------------------|
|------------------------------------------|
|------------------------------------------|
|------------------------------------------|
|-3-3-3----3-3-3----3-3-3-3-3--3-3--3--3-3-|


  ~
          |-------3-------|
  Q       Q      Q        Q      S  S  E
|------------------------------------------|
|-------------------------------12-13-12---|
|---------9-----11-------12----------------|
|-9----------------------------------------|
|------------------------------------------|
|------------------------------------------|
|
| S S S S S S S    S S S    S S  S  S  S S
|------------------------------------------|
|------------------------------------------|
|------------------------------------------|
|------------------------------------------|
|--------------------------------2--2--2-2-|
|-2-2-2-2-2-2-2----2-2-2----2-2------------|


   ~~~
   E.      Q        +S   S  S  E    S  S  E
|---------------------------------------------|
|----------------------------------11-12-13---|
|-12------11-------(11)-11-12-13--------------|
|---------------------------------------------|
|---------------------------------------------|
|---------------------------------------------|
|
|  S  S S  S S S S   S   S  S  S S  S  S  S S
|---------------------------------------------|
|---------------------------------------------|
|---------------------------------------------|
|---------------------------------------------|
|--1--1-1--1-1-1-1---1---1--1--1-1--1--1--1-1-|
|---------------------------------------------|


   S  S  E    S  S  E    S  S  E    S  S  E
|---------------------------------------------|
|------------12-14-15--------------14-15-17---|
|-12-14-15--------------14-15-17--------------|
|---------------------------------------------|
|---------------------------------------------|
|---------------------------------------------|
|
|  S  S  S S  S  S  S S  S  S  S S  S  S  S S
|---------------------------------------------|
|---------------------------------------------|
|---------------------------------------------|
|---------------------------------------------|
|---------------------------------------------|
|--1--1--1-1--1--1--1-1--1--1--1-1--1--1--1-1-|


   S  S  E    S  S  E    H
|-------------------------------------------|
|------------15-17-18---19b21---------------|
|-15-17-19----------------------------------|
|-------------------------------------------|
|-------------------------------------------|
|-------------------------------------------|
|
|  S  S  S S  S  S  S S  S    S S S S S S S
|-------------------------------------------|
|-------------------------------------------|
|-------------------------------------------|
|-------------------------------------------|
|-------------------------------------------|
|--3--3--3-3--3--3--3-3--3----3-3-3-3-3-3-3-|


   H                   S  S  S  S  S  S  S  S
|-----------------------------------------------|
|-19b21r==============19-16-17-16-16-19-17-19---|
|-----------------------------------------------|
|-----------------------------------------------|
|-----------------------------------------------|
|-----------------------------------------------|
|
|  S    S S S S S S S  S  S  S  S  S  S  S  S
|-----------------------------------------------|
|-----------------------------------------------|
|-----------------------------------------------|
|-----------------------------------------------|
|----------------------------------2--2--2--2---|
|--2----2-2-2-2-2-2-2--2--2--2--2---------------|


   S  S  S  S  S  S  S  S  S  S  S  S  S  S  S  S
|-------------------------------------------------|
|-16-17-16-16-19-16-19-16-17-16-16-19-16-19-16-17-|
|-------------------------------------------------|
|-------------------------------------------------|
|-------------------------------------------------|
|-------------------------------------------------|
|
|  S  S  S  S  S  S  S  S  S  S  S  S  S  S  S  S
|-------------------------------------------------|
|-------------------------------------------------|
|-------------------------------------------------|
|-------------------------------------------------|
|--1--1--1--1--1--1--1--1--1--1--1--1--1--1--1--1-|
|-------------------------------------------------|


   S  S  S  S  S  S  S  S  S  S  S  S  S  S  S  S
|---------------------------------------------------|
|-16-17-16-16-19-16-19-16-17-16-16-19-16-19-16-17---|
|---------------------------------------------------|
|---------------------------------------------------|
|---------------------------------------------------|
|---------------------------------------------------|
|
|  S  S  S  S  S  S  S  S  S  S  S  S  S  S  S  S
|---------------------------------------------------|
|---------------------------------------------------|
|---------------------------------------------------|
|---------------------------------------------------|
|--3--3--3--3--3--3--3--3--3--3--3--3--3--3--3--3---|
|---------------------------------------------------|


   S  S  S  S  S  S  S  S  S  S  S  S  S  S  S  S
|----------------17-16-19-16----16----19----------|
|-16-17-16-16-19-------------17----16----16-17-19-|
|-------------------------------------------------|
|-------------------------------------------------|
|-------------------------------------------------|
|-------------------------------------------------|
|
|  S  S  S  S  S  S  S  S  S  S  S  S  S  S  S  S
|-------------------------------------------------|
|-------------------------------------------------|
|-------------------------------------------------|
|-------------------------------------------------|
|-------------------------------------------------|
|--3--3--3--3--3--3--3--3--3--3--3--3--3--3--3--3-|


   S  S  S  S  E    E    E    E    E    E
|----------------------------------------------|
|-16-16-19-16-16---17---19---17---16-----------|
|--------------------------------------17------|
|----------------------------------------------|
|----------------------------------------------|
|----------------------------------------------|
|
|  S  S  S  S  S S  S S  S S  S S  S S  S S
|----------------------------------------------|
|----------------------------------------------|
|----------------------------------------------|
|----------------------------------------------|
|----------------------------------2-2--2-2----|
|--2--2--2--2--2-2--2-2--2-2--2-2--------------|


                       ~~~~
   E    E    Q        +H
|---------------------------------------|
|---------------------------------------|
|-14---17---16-------(16)---------------|
|---------------------------------------|
|---------------------------------------|
|---------------------------------------|
|
|  S S  S S  S S S S   S  S S S S S S S
|---------------------------------------|
|---------------------------------------|
|---------------------------------------|
|---------------------------------------|
|--1-1--1-1--1-1-1-1---1--1-1-1-1-1-1-1-|
|---------------------------------------|


                                                 ~~~~
   |----3----|    |----3----|    |----3----|
   E    E    E    E    E    E    E    E    E    +Q
|---------------------------------------------------------|
|-----------17---16---------------------------------------|
|-16---17-------------17---14-----------------------------|
|-------------------------------15---12---14---(14)-------|
|---------------------------------------------------------|
|---------------------------------------------------------|
|
|  S S    S    S  S S    S    S  S S    S    S   S  S S S
|---------------------------------------------------------|
|---------------------------------------------------------|
|---------------------------------------------------------|
|---------------------------------------------------------|
|---------------------------------------------------------|
|--1-1----1----1--1-1----1----1--1-1----1----1---1--1-1-1-|


    ~~~~                                                            ~
   +Q         E    E    E    E    E    E      E    E    E    E  Q   Q
|------------------------------------------|----------------------------------|
|------------12--------14---10---12--------|-10-------------------------------|
|-----------------12------------------14---|------12---14---10-12S==4---------|
|-(14)-------------------------------------|----------------------------------|
|------------------------------------------|----------------------------------|
|------------------------------------------|----------------------------------|
|
|   S  S S S  S S  S S  S S  S S  S S  S S    S S  S S  S S  S  S S S S S Q
|------------------------------------------|----------------------------------|
|------------------------------------------|----------------------------------|
|------------------------------------------|----------------------------------|
|------------------------------------------|------------------------------4---|
|------------------------------------------|------------------------------2---|
|---3--3-3-3--3-3--3-3--3-3--3-3--3-3--3-3-|--2-2--2-2--2-2--2--2-2-2-2-2-----|


         D.S. al Coda    &
  ~~~~~~~~~~~~~
  W          W           Q  H.
|----------|----------||----------*|
|----------|----------||----------*|
|-3--------|-5--------||----------*|
|----------|----------||----------*|
|----------|----------||-2--------*|
|----------|----------||-0--------*|
|
| W          W           Q  H.
|----------|----------||----------*|
|----------|----------||----------*|
|----------|----------||----------*|
|-3--------|-5--------||----------*|
|-1--------|-3--------||-2--------*|
|----------|----------||-0--------*|



Duration Legend
---------------
W - whole; H - half; Q - quarter; E - 8th; S - 16th; T - 32nd; X - 64th; a - acciaccatura
+ - note tied to previous; . - note dotted; .. - note double dotted
Uncapitalized letters represent notes that are staccato (1/2 duration)
Irregular groupings are notated above the duration line
Duration letters will always appear directly above the note/fret number it represents the
duration for.  Duration letters with no fret number below them represent rests.  Multi-
bar rests are notated in the form Wxn, where n is the number of bars to rest for.  Low
melody durations appear below the staff

Tablature Legend
----------------
 h   - hammer-on
 p   - pull-off
 b   - bend
 pb  - pre-bend
 r   - bend release (if no number after the r, then release immediately)
 /\  - slide into or out of (from/to "nowhere")
 s   - legato slide
 S   - shift slide
 - natural harmonic
[n]  - artificial harmonic
n(n) - tapped harmonic
 ~   - vibrato
 tr  - trill
 T   - tap
 TP  - trem. picking
 PM  - palm muting
\n/  - tremolo bar dip; n = amount to dip
 \n  - tremolo bar down
 n/  - tremolo bar up
/n\  - tremolo bar inverted dip
 =   - hold bend; also acts as connecting device for hammers/pulls
 <> - volume swell (louder/softer)
 x   - on rhythm slash represents muted slash
 o   - on rhythm slash represents single note slash

Misc Legend
-----------
 |  - bar
||  - double bar
||o - repeat start
o|| - repeat end
*|  - double bar (ending)
 :  - bar (freetime)
 $  - Segno
 &  - Coda
Tempo markers -  = BPM(8/16=s8/s16), where s8 = swing 8ths, s16 = swing 16ths


            
            
Suggest correction
Creating personal tab
Creating personal tab
You can edit any tab online and save it as your Personal.

You can edit, replace or remove any tab part or add personal notes – all changes will be seen only by you.

Personal tabs can be accessed anytime from any device, even offline.
Learn more »
Give kudos to tab author, rate the tab!
1 2 3 4 5
comments
print report bad tab
guest
You may want to rate the tab now too:
select rating
Wanna post a correction for this tab? Suggest correction