Oops, an error
Loading. Please wait.

Living Monstrosity bass

version 1
version 1

Whole song

Interactive

by Death
1,931 views 1 this week
no commentswrite comment
1 2 3 4 5
2 more votes to show rating
add to favorites
×
Save as Personal and add changes to this tab that will be seen only by you. Learn more ›
×
You can save this tab as Personal to edit and correct it or add notes. All changes will be seen only by you. Learn more »
launch autoscroll
font size
0
reset
guitar tuner
backing track
0:00
0:00
edit
Autoscroll
slow
fast
+/-
esc
set tempo
stop
Author
-------------------------------------------------------------------------------
			     Living Monstrosity - Death
-------------------------------------------------------------------------------



Tuning: Drop D

Into
G|------------------------------------------------|
D|------------------------------------------------|
A|------------------------------------------------|
D|55555-44444-88888-77777-55555-44444-88888-77777-|

G|--------------------------------|
D|--------------------------------|
A|--------------------------------|
D|55554444888877775555444488887777|

G|--------------------------------|
D|--------------------------------|
A|----11110000--------33332222----|
D|0000--------33334444--------5555|



Verse
G|--------------------------------|
D|--------------------------------|
A|----11110000--------33332222----|
D|0000--------33334444--------5555|

G|--------------------------------| 
D|--------------------------------|   
A|----11110000--------3333-1---6--|
D|0000--------33334444-------3---1|


Chorus
G|---------------|
D|---------------| "The guilty one... Innocent she now cries
A|3-2-----1-0----| A life of hell... Better off to die"
D|----4-5-----3-4|

G|------------|------------|------------|------------|
D|------------|------------|------------|------------| "Born without eyes, 
A|------2-----|------2-----|------2-----|-------2-3-2| hands and half a 
D|333333-33333|333333-33333|333333-33333|444444------| brain..."

G|------------------------------------------------| "Living monstrosity 
D|------------------------------------------------| Freak for life they'll  
A|------------------------------------------------| always be..."
D|55555-44444-88888-77777-55555-44444-88888-77777-| 


Instrumental part
G|----------------|
D|-----3--------2-|
A|-2--------0-----|
D|----------------|

G|------------|------------|2-22-22-22-2|------------|<--(Listen closely, 
D|------------|3-33-33-33-3|------------|2-22-22-22-2|   the bass doesn't  
A|2-22-22-22-2|------------|------------|------------|   do that ascent    
D|------------|------------|------------|------------|   part. If you're 
                                                         having trouble 
                                                         hearing it, each
                                                         bar is the guitars
                                                         ascending and 
                                                         descending twice.)

Solo
G|----------------|
D|----------------|
A|-----2----1-----|
D|2222----2----5-4|

G|---------------|
D|---------------|
A|--0------------|
D|0---0-2-3-6-1--|


Post-solo part
G|------------|------------|
D|------------|------------|
A|--0-------1-|--0---3-2---|
D|0---0-3-1---|0---0-----5-|

G|---------------|
D|---------------|
A|---1-----------|
D|11----1-3-6-5-1|

G|------------|------------| "Some say she's naive
D|------------|------------| She's a stupid bitch
A|--0-------1-|--0---3-2---| Some say to forgive
D|0---0-3-1---|0---0-----5-| Guilty she should die"

G|---------------|
D|---------------|
A|---1-----------|
D|11----1-3-6-5-1|

Play verse 
Play chorus

That's it.

            
            
Suggest correction
Creating personal tab
Creating personal tab
You can edit any tab online and save it as your Personal.

You can edit, replace or remove any tab part or add personal notes – all changes will be seen only by you.

Personal tabs can be accessed anytime from any device, even offline.
Learn more »
Give kudos to tab author, rate the tab!
1 2 3 4 5
comments
print report bad tab
guest
You may want to rate the tab now too:
select rating
Wanna post a correction for this tab? Suggest correction