Oops, an error
Loading. Please wait.
We have an official Spirit Crusher tab made by UG professional guitarists. Check out the tab »
×
by Death
1,091 views 1 this week
2 commentsread comments
1 2 3 4 5
1 last vote to show rating
add to favorites
×
Save as Personal and add changes to this tab that will be seen only by you. Learn more ›
×
You can save this tab as Personal to edit and correct it or add notes. All changes will be seen only by you. Learn more »
launch autoscroll
font size
0
reset
guitar tuner
backing track
0:00
0:00
edit
Autoscroll
slow
fast
+/-
esc
set tempo
stop
Author
Difficulty
Spirit Crusher Bass Tab by Death 


Cheers to BassmastaBobert for doing the original bass tab.
I used that to make this standard tuned version of it so 
you can save those precious strings of yours.
(BTW if you're a real bassist, you don't use a pick.)

Pretty easy song, sounds great and fun to play.


INTRO:
G|---------------------------------|
D|-----2-------------2-------------| 
A|---0-----0---1---0-----0---1/4---|
E|-------1-------------1---------2-|
B|-3---------4---3---------4-------| x4

VERSE:
G |-----1/2---------1/2---------1/2---------1/2-----|
D |---------0-----------0-----------0-----------0---| 
A |---4-----------4-----------4-----------4---------|
E |-2---------3-2---------3-2---------3-2---------3-|
B |-------------------------------------------------| x4

INTERLUDE:
G |-------------------------------------------------|
D |-------------------------------------------------|
A |-------------------0-----------------------------|
E |-------0-----1-----------3-----0-----1-----0-----|
B |-3-333---333---333---333---333---333---333---333-|

G |-----------------------------------------------|
D |-------0-----2-----------0~--------------------|
A |-3-----------------3---------------------------|
E |-----------------------------------------------|
B |---333---333---333---333-----3-333-3-3-3-333-3-|
Both x2

PRE-CHORUS:
G |----------------------------------------------|
D |-0-----2-----3-----2-----0----2----3----2-----|
A |--------------------------0000-0000-0000-0000-|
E |---444---444---444---444----------------------|
B |----------------------------------------------|

G |--------------------------0----------------------|
D |-0----2----3----2----2---------3----2----2~------|
A |--1111-1111-1111-1111-3333-3333-3333-0101-----/7-|
E |-------------------------------------------------|
B |-------------------------------------------------|

CHORUS:
G |-------------------------------------------|
D |-------------------------------------------|
A |-----1---------------------1-1----------3~-|
E |---------1--1/3-3--------------------------|
B |-3------------------3--3---------3--3------|

G |----------------------------------------------|
D |----------------------------------------------|
A |-----1---------------------1-1----------/3-3~-|
E |---------1--1/3-3-----------------------------|
B |-3------------------3--3---------3--3---------|
Both x2

G |------------------|
D |------------------|
A |-----1------------|
E |---------1-1/3-3~-|
B |-3----------------|

BRIDGE:
G ||------------------6---------5--------||
D ||•-----5-6---------------------------•|| 
A ||•---------4-----9---9-----8---8---8-•||
E ||----8---------7-------7-6-------6----|| x5
B ||--6---------7------------------------||

MID-PART (Start when drums are coming in):
G |------------------10---8---7------------------------8---7---------|
D |-----7---8---10----------------8-------7---8---10-----------7---8-|
A |-6-6---6---6----6----6---6---6---6-6-6---6---6----6---6---6---6---|
E |------------------------------------------------------------------|
B |------------------------------------------------------------------|

G |--------0/2-2--------2/3-3--------3/5-5--------5/3-3-|
D |-----------------------------------------------------|
A |-----------------------------------------------------|
E |--333333-------333333-------333333-------333333------|
B |-----------------------------------------------------|
                                                   
G |-----------------------------------8/10-10--------8/7-7--|
D |-------7/8-8--------8/10-10------------------------------|
A |-666666-------666666---------666666---------666666-------|
E |---------------------------------------------------------|
B |---------------------------------------------------------|

GUITAR SOLO (Start when Chuck screams "...bled"):
G |-------0--------0-----0-|
D |------------------------|
A |------------------------|
E |-3333333--3333333--3333-|
B |------------------------|

G ||-----------------------3--------0--------0-----0--||
D ||•----------------1-------------------------------•|| 
A ||•------------------------------------------------•||
E ||--3333334--333333---333---3333333--3333333—-3333--||   
B ||--------------------------------------------------|| x5

G ||-----------------||
D ||•---------------•||
A ||•-2-------------•||
E ||------0---3------||
B ||--------------3--||

POST-SOLO:
G |----------------------------------------------------------------------|
D |----------------------------------------------------------------------|
A |---------0-------------1-------------3-------------1------------------|
E |-----------------------------------1---1~-----------------------------|
B |-3-333-3---3---3-333-4---4~--3-333---------3-333-4---4~--3-3333---3---|

G |------------------------------------------------------------------------|
D |------------------------------------------------------------------------|
A |---------0-------------1-------------3-------------1--------------------|
E |-----------------------------------1---1~-------------------------------|
B |-3-333-3---3---3-333-4---4~--3-333---------3-333-4---4~--3-3333------3--|

G |-----------------------------------------------------------------------|
D |-----------------------------------------------------------------------|
A |---------0-------------1-------------3-------------1-------------------|
E |-----------------------------------1---1~------------------------------|
B |-3-333-3---3---3-333-4---4~--3-333---------3-333-4---4~--3-3333-----3--|

G |------------------------------------------|
D |------------------------------------------|
A |---------0-------------1-------------3----|
E |-----------------------------------1---1~-|
B |-3-333-3---3---3-333-4---4~--3-333--------|

VERSE:
G |-----1/2---------1/2---------1/2---------1/2-----|
D |---------0-----------0-----------0-----------0---| 
A |---4-----------4-----------4-----------4---------|
E |-2---------3-2---------3-2---------3-2---------3-|
B |-------------------------------------------------| x4

INTERLUDE:
G |-------------------------------------------------|
D |-------------------------------------------------|
A |-------------------0-----------------------------|
E |-------0-----1-----------3-----0-----1-----0-----|
B |-3-333---333---333---333---333---333---333---333-|

G |-----------------------------------------------|
D |-------0-----2-----------0~--------------------|
A |-3-----------------3---------------------------|
E |-----------------------------------------------|
B |---333---333---333---333-----3-333-3-3-3-333-3-|
Both x2

PRE-CHORUS:
G |----------------------------------------------|
D |-0-----2-----3-----2-----0----2----3----2-----|
A |--------------------------0000-0000-0000-0000-|
E |---444---444---444---444----------------------|
B |----------------------------------------------|

G |--------------------------0----------------------|
D |-0----2----3----2----2---------3----2----2~------|
A |--1111-1111-1111-1111-3333-3333-3333-0101-----/7-|
E |-------------------------------------------------|
B |-------------------------------------------------|

CHORUS:
G |-------------------------------------------|
D |-------------------------------------------|
A |-----1---------------------1-1----------3~-|
E |---------1--1/3-3--------------------------|
B |-3------------------3--3---------3--3------|

G |----------------------------------------------|
D |----------------------------------------------|
A |-----1---------------------1-1----------/3-3~-|
E |---------1--1/3-3-----------------------------|
B |-3------------------3--3---------3--3---------|
Both x2

G |------------------|
D |------------------|
A |-----1------------|
E |---------1-1/3-3~-|
B |-3----------------|

BRIDGE:
G ||------------------6---------5--------||
D ||•-----5-6---------------------------•|| 
A ||•---------4-----9---9-----8---8---8-•||
E ||----8---------7-------7-6-------6----|| x5
B ||--6---------7------------------------||

MID-PART (Start when drums are coming in):
G |------------------10---8---7------------------------8---7---------|
D |-----7---8---10----------------8-------7---8---10-----------7---8-|
A |-6-6---6---6----6----6---6---6---6-6-6---6---6----6---6---6---6---|
E |------------------------------------------------------------------|
B |------------------------------------------------------------------|

G |--------0/2-2--------2/3-3--------3/5-5--------5/3-3-|
D |-----------------------------------------------------|
A |-----------------------------------------------------|
E |--333333-------333333-------333333-------333333------|
B |-----------------------------------------------------|
                                                   
G |-----------------------------------8/10-10--------8/7-7--|
D |-------7/8-8--------8/10-10------------------------------|
A |-666666-------666666---------666666---------666666-------|
E |---------------------------------------------------------|
B |---------------------------------------------------------|


            
            
Suggest correction
Creating personal tab
Creating personal tab
You can edit any tab online and save it as your Personal.

You can edit, replace or remove any tab part or add personal notes – all changes will be seen only by you.

Personal tabs can be accessed anytime from any device, even offline.
Learn more »
Give kudos to tab author, rate the tab!
1 2 3 4 5
comments
print report bad tab
2 comments total.
0 reply
6METAL6BASSIST6 [tm] 27,566 Nov 06, 2012 11:06 PM

DGCF is the tuning and easier than B standard and using 2 notes lower

0 reply
arrell 229 Jan 19, 2015 12:40 AM

Bassist who played on 'The Sound of Perseverance' used a pick.

guest
You may want to rate the tab now too:
select rating
Wanna post a correction for this tab? Suggest correction