Oops, an error
Loading. Please wait.
We have an official Spirit Crusher tab made by UG professional guitarists. Check out the tab »
×
by Death
66,849 views 63 this week
5 commentsread comments
1 2 3 4 5
x 40
add to favorites
×
Save as Personal and add changes to this tab that will be seen only by you. Learn more ›
×
You can save this tab as Personal to edit and correct it or add notes. All changes will be seen only by you. Learn more »
launch autoscroll
font size
0
reset
how to read this tab
guitar tuner
backing track
0:00
0:00
edit
Autoscroll
slow
fast
+/-
esc
set tempo
stop
band: DEATH
song: SPIRIT CRUSHER
album: THE SOUND OF PERSEVERANCE
Tabbed by SuicideNation (purgatory_unleashed@hotmail.com)

D tuning (D,G,C,F,A,D) - all string down 1 step

 Riff A.1 (after the bass intro)(X4)
D|--------------------|
A|--------------------|Gtrs I
F|--------------------|  & II
C|-------8--8/9-------|
G|----6----------7----|
D|-4----------------5-|
  .  .


 Riff A.2 (Play 4 Times Total)
D|------------------------|
A|------------------------|
F|-------10--10-/11-------|Gtr I
C|----8--------------9----|
G|-6--------------------7-|
D|------------------------|
|                        |
|------------------------|
|------------------------|
|------------------------|Gtr II
|--------8---8--/9-------|
|----6--------------7----|
|-4--------------------5-|
  .  .
Repeat Riff A.1
Repeat Riff A.2

 Riff B.1 (X2)
D|----------------------------------------------------|
A|----------------------------------------------------|Gtrs I
F|----------------------------------------------------|  & II
C|--------------------9-----7-------------------------|
G|-7-----9-----10-----------------9-----10-----9------|
D|---000---000----000---000---000---000----000---000--|
    ...   ...    ...   ...   ...   ...    ...   ...

D|----------------------------------------------------|
A|----------------------------------------------------|Gtrs I
F|----------------------------------------------------|  & II
C|-7-----9-----11-----7------ph-----------------------|
G|-5-----7------9-----5------7~-----------------------|
D|---000---000----000---000-------0-000-0-0-0-000-0-0-|
    ...   ...    ...   ...       . ... . . . ... . .
Riff B.2
|--------------------------|
|--------------------------|
|--------------------------|Gtrs I
|--------------------------|  & II
|-7-----9-----10-----9-----|
|---000---000----000---000-|
    ...   ...    ...   ...


 Riff C.1
D|---------------------------------------|
A|---------------------------------------|Gtrs I
F|---------------------------------------|  & II
C|---------------------------------------|
G|-7--------9--------10--------9---------|
D|---666666---666666----666666---666666--|
    ......   ......    ......   ......

 Riff C
D|---------------------------------------|
A|---------------------------------------|Gtrs
F|---------------------------------------|I&II
C|---------------------------------------|
G|-7--------9--------10--------9---------|
D|---888888---888888----888888---888888--|
    ......   ......    ......   ......

D|---------------------------------------|
A|---------------------------------------|Gtrs
F|---------------------------------------|I&II
C|---------------------------------------|
G|-7--------9--------10--------9---------|
D|---999999---999999----999999---999999--|
    ......   ......    ......   ......
|--------------------------------------------------|
|--------------------------------------7~~~---/\---|
|---------------------------------------------/\---|Gtr I
|-4--------7--------5---------2---------------/\---|
|---555555---555555---555555----333333-------------|
|--------------------------------------------------|
|                                                  |
|--------------------------------------------------|
|---------------------------------------------/\---|
|---------------------------------------------/\---|Gtr II
|-4--------7--------5-----------------9~~~----/\---|
|---555555---555555---555555-7---------------------|
|------------------------------888888--------------|
    ......   ......   ......   ......


 Riff D.1  (Play A Total Of 2 Times)
D|--------------------------------------|
A|--------------------------------------|
F|----5------------------5--------------|Gtrs I
C|-2--5--5-5/7-7~--2-2---5---2-2---ph.-|  & II
G|-2--3--5-5/7-7~--2-2---3---2-2---5~---|
D|-0-----3-3/5-5~--0-0-0-----0-0-0------|
                      .         .

D|--0-----------------------------------|
A|----0---------------------------------|
F|------5------------------5---------7--|Gtrs I
C|-2----5--5-5/7-7~--2-2---5---2-2---7--|  & II
G|-2----3--5-5/7-7~--2-2---3---2-2---5--|
D|-0-------3-3/5-5~--0-0-0-----0-0-0----|
                        .         .

 Riff D.2
D|-----------------|
A|-----------------|
F|----5------------|Gtrs I
C|-2--5--5-5/7-7~--|  & II
G|-2--3--5-5/7-7~--|
D|-0-----3-3/5-5~--|


5 second bass fill played here


 Riff E (Play A Total of 4 Times)
D|---------------------6---------5-------|
A|---------------------------------------|
F|-----9-9/10--------8---8-----7---7---7-|Gtr I
C|---7--------8----6-------6-5-------5---|
G|-5------------6------------------------|
D|---------------------------------------|
| .                                     |
|---------------------------------------|
|---------------------------------------|
|---------------------8---------7-------|Gtr II
|-----7-7/8---------6---6-----5---5---5-|
|---5--------6----4-------4-3-------3---|
|-3------------4------------------------|
  .


 Riff F
D|------------------------------------|
A|------------------------------------|
F|------------------9---7-------------|Gtrs I
C|-----7---9---10-----------9---10----|  & II
G|-0-0---0---0----0---0---0---0----0--|
D|------------------------------------|
  . .   .   .    .   .   .   .    .

D|------------------------------------|
A|------------------------------------|
F|------------------10---9------------|Gtrs I
C|-----7---9---10------------9---10~--|  & II
G|-0-0---0---0----0----0---0---0------|
D|------------------------------------|
  . .   .    .    .     .   .   .


 Riff G
D|------------------------------------|
A|------------------------------------|
F|-------------------12---10---9------|Gtrs I
C|-----9---10---12-----------------10-|  & II
G|-8-8---8----8----8----8----8---8----|
D|------------------------------------|
  . .   .    .    .    .    .   .

D|------------------------------------|
A|------------------------------------|
F|-------------------10---9-----------|Gtrs I
C|-----9---10---12------------9---10~-|  & II
G|-8-8---8----8----8----8---8---8-----|
D|------------------------------------|
  . .   .    .    .    .   .   .


 Riff H (Both Gtrs)  (Play A Total Of 2 Times)
D|-------------------------------------------------------------------------|
A|-------------------------------------------------------------------------|
F|-----------h---------------h------------------h------------------p-------|
C|----------7-9-9~----------9-10-10~----------10-12-12~----------12-10-10~-|
G|-00000000--------00000000----------00000000-----------00000000-----------|
D|-------------------------------------------------------------------------|
  ........        ........          ........           ........

D|-------------------------------------------------------------------------|
A|-------------------------------------------------h------------------p----|
F|-----------h------------------h----------------10-12-12~----------10-9-9~|
C|----------9-10-10~----------10-12-12~------------------------------------|
G|-88888888----------88888888-----------88888888-----------88888888--------|
D|-------------------------------------------------------------------------|
  ........          ........           ........           ........


 Riff I (Solo 1) (Play A Total Of 4 Times)
D|--------------------------------------------------------------|
A|--------------------------------------------------------------|
F|----------10------------------12----------9----------9------9-|Gtr II
C|-----------8----------10------10----------7----------7------7-|
G|-00000000----00000000--8-0000----00000000---00000000---0000---|
D|--------------------------------------------------------------|
  ........    ........    ....    ........   ........   ....


 Riff J: (Solo 2) (Play A Total Of 2 Times)
D|--------------|
A|--------------|
F|--6-----2-----|Gtr II
C|--6--4--2--2--|
G|--4--4--0--2--|
D|-----2-----0--|



 Riff K.1 (Play A Total Of 2 Times)
D|-----------------------------------------------|
A|-----------------------------------------------|Gtrs
F|-----------------------------------------------|I&II
C|---------9-------------10--------------12------|
G|-------7---7~--------8----8~--------10----10~--|
D|-0-000--------0-000----------0-000-------------|
  . ...        . ...          . ...


D|-------------------------------|
A|-------------------------------|Gtrs
F|-------------------------------|I&II
C|---------10----999---9-9----9\-|
G|-------8----8~-777---7-7----7\-|
D|-0-000---------000-0-----00----|
  . ...         ... .     ..


 Riff K.2
D|-----------------------------------------------|
A|-----------------------------------------------|Gtr I
F|-----------------------------------------------|
C|---------9--------------10--------------12-----|
G|-------7---7~---------8----8~--------10----10~-|
D|-0-000---------0-000----------0-000------------|
| . ...         . ...          . ...            |
|                                               |
|-----------------------------------------------|
|-----------------------------------------------|Gtr II
|---------11-------------12--------------14-----|
|-------9----9~-------10----10~-------12----12~-|
|-----------------------------------------------|
|-0-000---------0-000----------0-000------------|
  . ...         . ...          . ...


D|-------------------------------|
A|-------------------------------|Gtr I
F|-------------------------------|
C|---------10----999---9-9----9\-|
G|-------8----8~-777---7-7----7\-|
D|-0-000---------000-0-----00----|
| . ...         ... .     ..    |
|                               |
|-------------------------------|
|-------------------------------|Gtr II
|---------12--------------------|
|-------10--10~-999---9-9----9\-|
|---------------777---7-7----7\-|
|-0-000---------000-0-----00----|
  . ...         ... .     ..


D|-----------------------------------------------|
A|-----------------------------------------------|Gtr I
F|-----------------------------------------------|
C|---------9--------------10--------------12-----|
G|-------7---7~---------8----8~--------10----10~-|
D|-0-000---------0-000----------0-000------------|
| . ...         . ...          . ...            |
|                                               |
|-----------------------------------------------|
|-----------------------------------------------|Gtr II
|---------11-------------12--------------14-----|
|-------9----9~-------10----10~-------12----12\-|
|-----------------------------------------------|
|-0-000---------0-000----------0-000------------|
  . ...         . ...          . ...

Repeat Riff A.1  (4 Times Total)
Repeat Riff A.2  (4 Times Total)
Repeat Riff A.1  (4 Times Total)
Repeat Riff A.2  (4 Times Total)
Repeat Riff B.1  (2 Times Total)
Repeat Riff B.2  (1 Time  Total)
Repeat Riff C    (1 Time  Total)
Repeat Riff D.1  (4 Times Total)
Repeat Riff D.2  (1 Time  Total)
Repeat Riff E    (4 Times Total)
Repeat Riff F    (1 Time  Total)
Repeat Riff G    (1 Time  Total)
Repeat Riff H    (2 Times Total)
         *(The Last Time Riff H is played,)
          (the last note becomes an artificial harmonic)

            
            
Suggest correction
Creating personal tab
Creating personal tab
You can edit any tab online and save it as your Personal.

You can edit, replace or remove any tab part or add personal notes – all changes will be seen only by you.

Personal tabs can be accessed anytime from any device, even offline.
Learn more »
comments
print report bad tab
5 comments total. Showing first comments.
+2 reply
ZAZ2112 10 May 08, 2008 08:20 PM

great tab!!!

+1 reply
DragTheWaters11 141 Jul 14, 2009 09:04 PM

Looks good sir, good job. 5*

0 reply
Asmithe 104 Feb 19, 2012 07:33 AM

Seems great! No solo though, guess ill have to look around :o

guest
You may want to rate the tab now too:
select rating
Wanna post a correction for this tab? Suggest correction