Oops, an error
Loading. Please wait.
We have an official Voice Of The Soul tab made by UG professional guitarists. Check out the tab »
×
by Death
156,083 views 294 this week
12 commentsread comments
1 2 3 4 5
x 43
add to favorites
×
Save as Personal and add changes to this tab that will be seen only by you. Learn more ›
×
You can save this tab as Personal to edit and correct it or add notes. All changes will be seen only by you. Learn more »
launch autoscroll
font size
0
reset
how to read this tab
guitar tuner
backing track
0:00
0:00
edit
Autoscroll
slow
fast
+/-
esc
set tempo
stop
Tuning = D (D,G,C,F,A,D)

[Section 1] 
(Rhythm guitar)

[Riff A]
(Clean)
D|---------------5h7h8-7---|----------------5h7h8-7---10---|
A|----0h5h7-5------------8-|----0h5h7-7-------------8----7-|
F|-------------------------|-------------------------------| (x10)
C|-------------------------|-------------------------------|
G|-------------------------|-------------------------------|
D|-0-----------0-----------|-0-----------0-----------------|

[Chords A.1] 
(Chords only) 
(listen for pattern)
D|---|---|---|---|---|---|---|---|
A|-5-|-3-|-5-|-3-|-6-|-8-|-6-|-8-|
F|-4-|-2-|-4-|-2-|-5-|-7-|-5-|-7-| (x2)
C|-2-|-0-|-2-|-0-|-3-|-5-|-3-|-5-|
G|---|---|---|---|---|---|---|---|
D|---|---|---|---|---|---|---|---|

[Chords A.2] 
(Chords only) 
(listen for pattern)
D|---|---|---|---|---|
A|-5-|---|-5-|---|---|
F|-4-|-5-|-4-|-5-|-2-| (x2)
C|-2-|-5-|-2-|-5-|-2-|
G|---|-3-|---|-3-|-0-|
D|---|---|---|---|---|

[Riff B] (x2)
(Clean)
D|--------------------------0-------|--------------------------0-------|
A|-------0----------------0---0-----|-------0----------------0---0-----|
F|-----5---5------------5-------5---|-----5---5------------5-------5---|
C|---2-------2---2----2-----------2-|---2-------2---2----2-----------2-|
G|-0-----------0----0---------------|-3-----------3----3---------------|
D|----------------------------------|----------------------------------|

[Riff C] (x2) 
(Clean)
D|----------------------------------|---------------------------------|
A|---------0----------------0-------|-------------------------0-------|
F|-----------0----------------0-----|-----------------------0---0-----|
C|-----5-------5--------5-------5---|-----3-----5---------4-------4---|
G|---5---5-------5----5---5-------5-|---3-----5-----7---2-----------2-|
D|-3----------------3---------------|-1-----3-----5---0---------------|

[Riff B] (x2)
(Clean)
D|--------------------------0-------|--------------------------0-------|
A|-------0----------------0---0-----|-------0----------------0---0-----|
F|-----5---5------------5-------5---|-----5---5------------5-------5---|
C|---2-------2---2----2-----------2-|---2-------2---2----2-----------2-|
G|-0-----------0----0---------------|-3-----------3----3---------------|
D|----------------------------------|----------------------------------|

[Riff C] (x2)
(Clean)
D|----------------------------------|---------------------------------|
A|---------0----------------0-------|-------------------------0-------|
F|-----------0----------------0-----|-----------------------0---0-----|
C|-----5-------5--------5-------5---|-----3-----5---------4-------4---|
G|---5---5-------5----5---5-------5-|---3-----5-----7---2-----------2-|
D|-3----------------3---------------|-1-----3-----5---0---------------|

[Riff B] (x2)
(Clean)
D|--------------------------0-------|--------------------------0-------|
A|-------0----------------0---0-----|-------0----------------0---0-----|
F|-----5---5------------5-------5---|-----5---5------------5-------5---|
C|---2-------2---2----2-----------2-|---2-------2---2----2-----------2-|
G|-0-----------0----0---------------|-3-----------3----3---------------|
D|----------------------------------|----------------------------------|

[Riff C] (x2)
(Clean)
D|----------------------------------|---------------------------------|
A|---------0----------------0-------|-------------------------0-------|
F|-----------0----------------0-----|-----------------------0---0-----|
C|-----5-------5--------5-------5---|-----3-----5---------4-------4---|
G|---5---5-------5----5---5-------5-|---3-----5-----7---2-----------2-|
D|-3----------------3---------------|-1-----3-----5---0---------------|

[Chords B.1] 
(Chords only) (listen for pattern)
D|---|---|---|---|
A|---|---|-5-|-3-|
F|-5-|-4-|-4-|-2-|
C|-5-|-4-|-2-|-0-| (x3)
G|-3-|-2-|---|---|
D|---|---|---|---|

[Chords B.2] 
(Chords only) 
(listen for pattern)
D|---|---|-0----------|
A|---|---|---0--------|
F|-5-|-4-|-----0----4-|
C|-5-|-4-|-------4--4-|
G|-3-|-2-|----------2-|
D|---|---|------------|

[Section 2] 
(Lead Guitar)

(Gtr 1)
(Lead A.1)
D|-------------------------------------------------------|
A|-12~-12/13-13~-13/15-15~-15/17-17/15-15/13-13-13/12-12-|
F|-------------------------------------------------------|
C|-------------------------------------------------------|
G|-------------------------------------------------------|
D|-------------------------------------------------------|

(Gtr 1)
(Lead A.2)
D|-14~-14/12-12~-12/15-15~-15/14-14/10-10~-10/19-19~--|
A|----------------------------------------------------|
F|----------------------------------------------------|
C|----------------------------------------------------|
G|----------------------------------------------------|
D|----------------------------------------------------|

(Gtr 1)
(Lead A.3)
D|12-12-15-14-12-14~--14-14-17-15-14-15~--15-15-19-17-15-17~-24bfr~-|
A|------------------------------------------------------------------|
F|------------------------------------------------------------------|
C|------------------------------------------------------------------|
G|------------------------------------------------------------------|
D|------------------------------------------------------------------|

(Gtr 2)
(Lead A - Fill) 
(play under A.1, A.2, A.3)
D|-----------------------------------------------------|
A|-----------------------------------------------------|
F|-----------------------------------------------------|
C|-9~-9/10-10~-10/12-12~-12/14-14/12-12/10-10-10/9--9~-|
G|-----------------------------------------------------|
D|-----------------------------------------------------|

(Gtr 1)
(Lead B.1)
D|-19----17----------------------------------------|
A|----20----20-19-19-19-17-15-15/17-17~------------|
F|-------------------------------------------------|
C|-------------------------------------------------|
G|-------------------------------------------------|
D|-------------------------------------------------|

(Gtr 2)
D|-------------------------------------------------|
A|----------12----10-------------------------------|
F|-------------12----12-11-11-11-9-9-9-7-7-7/9-9~--|
C|-------------------------------------------------|
G|-------------------------------------------------|
D|-------------------------------------------------|

(Gtr 1)
(Lead B.2)
D|-24bf~------24br~---------------------------------|
A|-------------------------17-17/19-19/20-19/20/19~-|
F|--------------------------------------------------|
C|--------------------------------------------------|
G|--------------------------------------------------|
D|--------------------------------------------------|

(Gtr 2)
D|--------------------------------------------------|
A|-12----10-----------------------------------------|
F|----12----12-11-11-11-9-7-7/9-9~~~----------------|
C|--------------------------------------------------|
G|--------------------------------------------------|
D|--------------------------------------------------|

(Gtr 1)
(Lead A.1)
D|-------------------------------------------------------|
A|-12~-12/13-13~-13/15-15~-15/17-17/15-15/13-13-13/12-12-|
F|-------------------------------------------------------|
C|-------------------------------------------------------|
G|-------------------------------------------------------|
D|-------------------------------------------------------|

(Gtr 1)
(Lead B.1)
D|-19----17----------------------------------------|
A|----20----20-19-19-19-17-15-15/17-17~------------|
F|-------------------------------------------------|
C|-------------------------------------------------|
G|-------------------------------------------------|
D|-------------------------------------------------|

(Gtr 2)
D|-------------------------------------------------|
A|----------12----10-------------------------------|
F|-------------12----12-11-11-11-9-9-9-7-7-7/9-9~--|
C|-------------------------------------------------|
G|-------------------------------------------------|
D|-------------------------------------------------|

(Gtr 1)
(Lead A.1)
D|-------------------------------------------------------|
A|-12~-12/13-13~-13/15-15~-15/17-17/15-15/13-13-13/12-12-|
F|-------------------------------------------------------|
C|-------------------------------------------------------|
G|-------------------------------------------------------|
D|-------------------------------------------------------|

(Gtr 1)
(Lead B.1)
D|-19----17----------------------------------------|
A|----20----20-19-19-19-17-15-15/17-17~------------|
F|-------------------------------------------------|
C|-------------------------------------------------|
G|-------------------------------------------------|
D|-------------------------------------------------|

(Gtr 2)
D|-------------------------------------------------|
A|----------12----10-------------------------------|
F|-------------12----12-11-11-11-9-9-9-7-7-7/9-9~--|
C|-------------------------------------------------|
G|-------------------------------------------------|
D|-------------------------------------------------|

(Gtr 1)
(Lead A.2)
D|-14~-14/12-12~-12/15-15~-15/14-14/10-10~-10/19-19~--|
A|----------------------------------------------------|
F|----------------------------------------------------|
C|----------------------------------------------------|
G|----------------------------------------------------|
D|----------------------------------------------------|

(Gtr 1)
(Lead B.1)
D|-19----17----------------------------------------|
A|----20----20-19-19-19-17-15-15/17-17~------------|
F|-------------------------------------------------|
C|-------------------------------------------------|
G|-------------------------------------------------|
D|-------------------------------------------------|

(Gtr 2)
D|-------------------------------------------------|
A|----------12----10-------------------------------|
F|-------------12----12-11-11-11-9-9-9-7-7-7/9-9~--|
C|-------------------------------------------------|
G|-------------------------------------------------|
D|-------------------------------------------------|

(Gtr 1)
(Lead A.3)
D|12-12-15-14-12-14~--14-14-17-15-14-15~--15-15-19-17-15-17~-24bfr~-|
A|------------------------------------------------------------------|
F|------------------------------------------------------------------|
C|------------------------------------------------------------------|
G|------------------------------------------------------------------|
D|------------------------------------------------------------------|

(Gtr 1)
(Lead B.2)
D|-24bf~------24br~---------------------------------|
A|-------------------------17-17/19-19/20-19/20/19~-|
F|--------------------------------------------------|
C|--------------------------------------------------|
G|--------------------------------------------------|
D|--------------------------------------------------|

(Gtr 2)
D|--------------------------------------------------|
A|-12----10-----------------------------------------|
F|----12----12-11-11-11-9-7-7/9-9~~~----------------|
C|--------------------------------------------------|
G|--------------------------------------------------|
D|--------------------------------------------------|

(Gtr 1, 2)
[Lead C.1]
D|-7h8h10t14~~--------7h8h10t15~~---------|
A|-----------5h7h8t12~~---------5h7h8t13~~|
F|----------------------------------------|
C|----------------------------------------|
G|----------------------------------------|
D|----------------------------------------|

(Gtr 1, 2)
(continuation of Lead C.1)
D|-7h8h10t17~~---------7h8h10t15~~----------|
A|-----------5h7h8t15~~----------5h7h8t13~~-|
F|------------------------------------------|
C|------------------------------------------|
G|------------------------------------------|
D|------------------------------------------|

(Lead C.2)
(Gtr 1)
D|-7h8h10t14~-7h8h10t15~-7h8h10t14~-7h8h10t17~-7h8h10t15~-7h8h10t14~-|
A|-------------------------------------------------------------------|
F|-------------------------------------------------------------------|
C|-------------------------------------------------------------------|
G|-------------------------------------------------------------------|
D|-------------------------------------------------------------------|

(Gtr 2)
D|-------------------------------------------------------------------|
A|-5h7h8t12~--5h7h8t13~--5h7h8t12~--5h7h8t15~--5h7h8t13~--5h7h8t12~--|
F|-------------------------------------------------------------------|
C|-------------------------------------------------------------------|
G|-------------------------------------------------------------------|
D|-------------------------------------------------------------------|

[Lead C.3]
(Gtr 1)
D|-7h8h10t14~-7h8h10t15~-7h8h10t14~-7h8h10t17~-7h8h10t15~-7h8h10t14~-|
A|-------------------------------------------------------------------|
F|-------------------------------------------------------------------|
C|-------------------------------------------------------------------|
G|-------------------------------------------------------------------|
D|-------------------------------------------------------------------|

(Gtr 2)
D|-------------------------------------------------------------------|
A|---------------------------------------------10-12-13--------------|
F|-9-11-12---------------9-11-12--------------------------9-11-12----|
C|-----------7--9-10----------------7--9-10--------------------------|
G|-------------------------------------------------------------------|
D|-------------------------------------------------------------------|

(Gtr 1, 2)
[Lead C.1]
D|-7h8h10t14~~--------7h8h10t15~~---------|
A|-----------5h7h8t12~~---------5h7h8t13~~|
F|----------------------------------------|
C|----------------------------------------|
G|----------------------------------------|
D|----------------------------------------|

(Gtr 1, 2)
(continuation of Lead C.1)
D|-7h8h10t17~~---------7h8h10t15~~----------|
A|-----------5h7h8t15~~----------5h7h8t13~~-|
F|------------------------------------------|
C|------------------------------------------|
G|------------------------------------------|
D|------------------------------------------|

[Lead C.2] (x2)
(Gtr 1)
D|-7h8h10t14~-7h8h10t15~-7h8h10t14~-7h8h10t17~-7h8h10t15~-7h8h10t14~-|
A|-------------------------------------------------------------------|
F|-------------------------------------------------------------------|
C|-------------------------------------------------------------------|
G|-------------------------------------------------------------------|
D|-------------------------------------------------------------------|

(Gtr 2)
D|-------------------------------------------------------------------|
A|-5h7h8t12~--5h7h8t13~--5h7h8t12~--5h7h8t15~--5h7h8t13~--5h7h8t12~--|
F|-------------------------------------------------------------------|
C|-------------------------------------------------------------------|
G|-------------------------------------------------------------------|
D|-------------------------------------------------------------------|

[Lead C.3] (x2)
(Gtr 1)
D|-7h8h10t14~-7h8h10t15~-7h8h10t14~-7h8h10t17~-7h8h10t15~-7h8h10t14~-|
A|-------------------------------------------------------------------|
F|-------------------------------------------------------------------|
C|-------------------------------------------------------------------|
G|-------------------------------------------------------------------|
D|-------------------------------------------------------------------|

(Gtr 2)
D|-------------------------------------------------------------------|
A|---------------------------------------------10-12-13--------------|
F|-9-11-12---------------9-11-12--------------------------9-11-12----|
C|-----------7--9-10----------------7--9-10--------------------------|
G|-------------------------------------------------------------------|
D|-------------------------------------------------------------------|

[Lead D.1]
(Gtr 2)
D|------------------------------------------------|
A|---------10-12----10-------10-12-13-12-10-------|
F|-9-11-12-------12----11-12----------------12-11-|
C|------------------------------------------------|
G|------------------------------------------------|
D|------------------------------------------------|

[Lead D.2]
(Gtr 2)
D|----------------------------------------|
A|---------10-12----10-------10-12-13-12~-|
F|-9-11-12-------12----11-12--------------|
C|----------------------------------------|
G|----------------------------------------|
D|----------------------------------------|

[Lead D.1]
(Gtr 2)
D|------------------------------------------------|
A|---------10-12----10-------10-12-13-12-10-------|
F|-9-11-12-------12----11-12----------------12-11-|
C|------------------------------------------------|
G|------------------------------------------------|
D|------------------------------------------------|

[Lead D.3]
(Gtr 2)
D|-----------------------------------------------10-8~-7~-|
A|---------10-12----10-------10-12-13-12~-10-12~----------|
F|-9-11-12-------12----11-12------------------------------|
C|--------------------------------------------------------|
G|--------------------------------------------------------|
D|--------------------------------------------------------|

  Lead D - Fill (play under D.1, D.2, D.3)
D|-t15p10-t14p10-t12p10-t14p10-t12p10-t14p10-t15p10-t14p10-|
A|---------------------------------------------------------|
F|---------------------------------------------------------|
C|---------------------------------------------------------|
G|---------------------------------------------------------|
D|---------------------------------------------------------|

  continuation of Lead D - Fill (play under D.1, D.2, D.3)
D|-t15p10-t17p10-t15p10-t14p10-t12p10-t14p10-t15p10-t12p10-|
A|---------------------------------------------------------|
F|---------------------------------------------------------|
C|---------------------------------------------------------|
G|---------------------------------------------------------|
D|---------------------------------------------------------|

[Lead E.1] (x3)
(Gtr 1)
D|-12~-14~-15~-/17~-15~-14/-|
A|--------------------------|
F|--------------------------|
C|--------------------------|
G|--------------------------|
D|--------------------------|

(Gtr 2)
D|--------------------------|
A|--------------------------|
F|-9~--11~-12~-/14~-12~-12/-|
C|--------------------------|
G|--------------------------|
D|--------------------------|

[Lead E.2]
(Gtr 1)
D|-12~-14~--20~-19~-|
A|------------------|
F|------------------|
C|------------------|
G|------------------|
D|------------------|

(Gtr 2)
D|------------------|
A|------------------|
F|-9~--11~--17~ 16~-|
C|------------------|
G|------------------|
D|------------------|

[Lead F.1 - Fade in]
(Gtr 1, 2)
D|-14~\------17~\-|
A|----------------|
F|-11~\------14~\-|
C|----------------|
G|----------------|
D|----------------|

[Lead G.1]
(Gtr 1)
D|-22b-22~-22/20/10-10-10/15-15-17-15-14/15-14~-\-|
A|------------------------------------------------|
F|------------------------------------------------|
C|------------------------------------------------|
G|------------------------------------------------|
D|------------------------------------------------|

(Gtr 2)
D|------------------------------------------------|
A|-20b-20~-20/18/8--8--8/13--13-15-13-12/13-12~-\-|
F|------------------------------------------------|
C|------------------------------------------------|
G|------------------------------------------------|
D|------------------------------------------------|

[Lead G.2] (x2)
(Gtr 1)
D|-------------------------------------|
A|-12-12-------------------------------|
F|-------12-12-------------------------|
C|-------------10-10-9--9--7--7--9--9--|
G|-------------------------------------|
D|-------------------------------------|

(Gtr 2)
D|-19-19-------------------------------|
A|-------20-20-13-13-12-12-10-10-12-12-|
F|-------------------------------------|
C|-------------------------------------|
G|-------------------------------------|
D|-------------------------------------|

(continuation of Lead G.2) 
(* natural harmonics)
(Gtr 1)
D|--------------------------------------------12*----12*----|
A|-----------------------------------------------12*----12*-|
F|----------------------------------------------------------|
C|-10-10-12-12br-10-10-9--12br-10--9/10-9~------------------|
G|----------------------------------------------------------|
D|------------------------------------------12*-------------|

(Gtr 2)
D|--------------------------------------------12*----12*----|
A|-13-13-14-14br-13-13-12-14br-13-12/13-12~------12*----12*-|
F|----------------------------------------------------------|
C|----------------------------------------------------------|
G|----------------------------------------------------------|
D|------------------------------------------12*-------------|

[Lead G.3]
(Gtr 1)
D|-24bf~~--|
A|---------|
F|---------|
C|---------|
G|---------|
D|---------|

[Lead G.1]
(Gtr 1)
D|-22b-22~-22/20/10-10-10/15-15-17-15-14/15-14~-\-|
A|------------------------------------------------|
F|------------------------------------------------|
C|------------------------------------------------|
G|------------------------------------------------|
D|------------------------------------------------|

(Gtr 2)
D|------------------------------------------------|
A|-20b-20~-20/18/8--8--8/13--13-15-13-12/13-12~-\-|
F|------------------------------------------------|
C|------------------------------------------------|
G|------------------------------------------------|
D|------------------------------------------------|

[Lead G.2] (x2)
(Gtr 1)
D|-------------------------------------|
A|-12-12-------------------------------|
F|-------12-12-------------------------|
C|-------------10-10-9--9--7--7--9--9--|
G|-------------------------------------|
D|-------------------------------------|

(Gtr 2)
D|-19-19-------------------------------|
A|-------20-20-13-13-12-12-10-10-12-12-|
F|-------------------------------------|
C|-------------------------------------|
G|-------------------------------------|
D|-------------------------------------|

(continuation of Lead G.2) 
(* natural harmonics)
(Gtr 1)
D|--------------------------------------------12*----12*----|
A|-----------------------------------------------12*----12*-|
F|----------------------------------------------------------|
C|-10-10-12-12br-10-10-9--12br-10--9/10-9~------------------|
G|----------------------------------------------------------|
D|------------------------------------------12*-------------|

(Gtr 2)
D|--------------------------------------------12*----12*----|
A|-13-13-14-14br-13-13-12-14br-13-12/13-12~------12*----12*-|
F|----------------------------------------------------------|
C|----------------------------------------------------------|
G|----------------------------------------------------------|
D|------------------------------------------12*-------------|

[Lead H.1]
(Gtr 1)
D|-20-19-17----------------------|
A|----------20-19-17-19~---------|
F|-------------------------------|
C|-------------------------------|
G|-------------------------------|
D|-------------------------------|

(Gtr 2)
D|-------------------------------|
A|----------------------17-19-20-|
F|-------------------------------|
C|-------------------------------|
G|-------------------------------|
D|-------------------------------|

[Lead H.2]
(Gtr 1)
D|-20-19-17----------------------|
A|----------20-19-17-19~---------|
F|-------------------------------|
C|-------------------------------|
G|-------------------------------|
D|-------------------------------|

(Gtr 2)
D|----------------------------17-|
A|----------------------19-20----|
F|-------------------------------|
C|-------------------------------|
G|-------------------------------|
D|-------------------------------|

[Lead H.1]
(Gtr 1)
D|-20-19-17----------------------|
A|----------20-19-17-19~---------|
F|-------------------------------|
C|-------------------------------|
G|-------------------------------|
D|-------------------------------|

(Gtr 2)
D|-------------------------------|
A|----------------------17-19-20-|
F|-------------------------------|
C|-------------------------------|
G|-------------------------------|
D|-------------------------------|

[Lead H.3]
(Gtr 1)
D|-24-24bf-24bf½-24bf~-24bf½-24bf-24bf½~-|
A|---------------------------------------|
F|---------------------------------------|
C|---------------------------------------|
G|---------------------------------------|
D|---------------------------------------|


************************************

| h   Hammer-on
| /   Slide up
| ~   Vibrato
| t   Tapping
| p   Pull-off
| b   Bend
| \   Slide down
| *   Natural harmonic
| br  Bend release

************************************

            
            
Suggest correction
Creating personal tab
Creating personal tab
You can edit any tab online and save it as your Personal.

You can edit, replace or remove any tab part or add personal notes – all changes will be seen only by you.

Personal tabs can be accessed anytime from any device, even offline.
Learn more »
comments
print report bad tab
12 comments total. Showing first comments. show 1 bad comment
+1 reply
mingles 90 May 21, 2003 08:00 PM

perfect! awsome dude.

0 reply
mr. ... 41 Aug 16, 2008 04:37 PM

nice. great tab

guest
You may want to rate the tab now too:
select rating
Wanna post a correction for this tab? Suggest correction