Oops, an error
Loading. Please wait.

Without Judgement tab

version 3
version 3
by Death
10,969 views 18 this week
no commentswrite comment
1 2 3 4 5
x 8
add to favorites
×
Save as Personal and add changes to this tab that will be seen only by you. Learn more ›
×
You can save this tab as Personal to edit and correct it or add notes. All changes will be seen only by you. Learn more »
launch autoscroll
font size
0
reset
how to read this tab
guitar tuner
edit
Autoscroll
slow
fast
+/-
esc
set tempo
stop
#----------------------------------PLEASE NOTE---------------------------------#
#This file is the author's own work and represents their interpretation of the #
#song. You may only use this file for private study, scholarship, or research. #
#------------------------------------------------------------------------------#

WITHOUT JUDGEMENT
As recorded by Death
(From the 1995 Album SYMBOLIC)

Transcribed by livingzombie, Stefanos Danakos
        

Words and Music by Chuck Schuldiner

Gtr I (D G C F A D) - 'Chuck Schuldiner'
Gtr II (D G C F A D) - 'Bobby Koeble'
Gtr III (D G C F A D) - 'Fills I'
Gtr IV (D G C F A D) - 'Fills II'

 Intro
  Q=180
  N.C.
 4/4
  Gtrs I, II
  PM    PM     PM      PM          ~~~
  E E E E E  E E E   E E E  E   E  Q.
|------------------|--------------------|
|------------------|--------------------|
|-----9-----10-----|-9-----10-/12-------|
|---7-----8------7-|-----8--------10----|
|-0-----0------0---|---0----------------|
|------------------|--------------------|


  PM    PM     PM      PM
  E E E E E  E E E   E E E  E   E  E   a   E  E
|------------------|-----------------------------|
|------------------|-----------------------------|
|-----9-----10-----|-9-----10-/12------------14--|
|---7-----8------7-|-----8--------10-(10)s12-----|
|-0-----0------0---|---0-------------------------|
|------------------|-----------------------------|


  Gtr I
  PM    PM     PM      PM          ~~~
  E E E E E  E E E   E E E  E   E  Q.
|------------------|--------------------|
|------------------|--------------------|
|-----9-----10-----|-9-----10-/12-------|
|---7-----8------7-|-----8--------10----|
|-0-----0------0---|---0----------------|
|------------------|--------------------|
|
| Gtr II
| PM    PM     PM      PM          ~~~
| E E E E E  E E E   E E E  E   E  Q.
|------------------|--------------------|
|------------------|--------------------|
|-----4------5-----|-4------5--/7-------|
|---2-----3------2-|-----3---------5----|
|-0-----0------0---|---0----------------|
|------------------|--------------------|


  PM    PM     PM      PM
  E E E E E  E E E   E E E  E   E  E   a   E  E
|------------------|----------------------------|
|------------------|----------------------------|
|-----9-----10-----|-9-----10-/12------------14-|
|---7-----8------7-|-----8--------10-(10)s12----|
|-0-----0------0---|---0------------------------|
|------------------|----------------------------|
|
| PM    PM     PM      PM
| E E E E E  E E E   E E E  E   E  E   a   E  E
|------------------|----------------------------|
|------------------|----------------------------|
|-----4------5-----|-4------5--/7-------------9-|
|---2-----3------2-|-----3---------5--(5)s=7----|
|-0-----0------0---|---0------------------------|
|------------------|----------------------------|


  A5
  PM    PM     PM        PM          ~~~
  E E E E E  E E E    E  E E  E   E  Q.
|------------------|----------------------|
|------------------|----------------------|
|-----9-----10-----|--9------10-/12-------|
|---7-----8------7-|-------8--------10----|
|-0-----0------0---|-----0----------------|
|------------------|----------------------|
|
| W                  +W
|------------------|----------------------|
|------------------|----------------------|
|------------------|----------------------|
|-7----------------|-(7)------------------|
|-7----------------|-(7)------------------|
|-5----------------|-(5)------------------|


  H.=H
  F5                 G5
  PM    PM     PM      PM
  E E E E E  E E E   E E E  E   E  E   a   E  E
|------------------|----------------------------|
|------------------|----------------------------|
|-----9-----10-----|-9-----10-/12------------14-|
|---7-----8------7-|-----8--------10-(10)s12----|
|-0-----0------0---|---0------------------------|
|------------------|----------------------------|
|
| W                  W
|------------------|----------------------------|
|------------------|----------------------------|
|------------------|----------------------------|
|-3----------------|-5--------------------------|
|-3----------------|-5--------------------------|
|-1----------------|-3--------------------------|


  Q=160
  A5
  PM    PM     PM        PM          ~~~
  E E E E E  E E E    E  E E  E   E  Q.
|------------------|----------------------|
|------------------|----------------------|
|-----9-----10-----|--9------10-/12-------|
|---7-----8------7-|-------8--------10----|
|-0-----0------0---|-----0----------------|
|------------------|----------------------|
|
| W                  +W
|------------------|----------------------|
|------------------|----------------------|
|------------------|----------------------|
|-7----------------|-(7)------------------|
|-7----------------|-(7)------------------|
|-5----------------|-(5)------------------|


  F5                 G5
  PM    PM     PM       PM
  E E E E E  E E E   E  E E  E   E  E   a   E   E
|------------------|------------------------------||
|------------------|------------------------------||
|-----9-----10-----|-9------10-/12-------------14-||
|---7-----8------7-|------8--------10-(10)s12-----||
|-0-----0------0---|----0-------------------------||
|------------------|------------------------------||
|
| W                  H.                     Q
|------------------|------------------------------||
|------------------|------------------------------||
|------------------|------------------------------||
|-3----------------|-5----------------------------||
|-3----------------|-5----------------------------||
|-1----------------|-3---------------------12\----||


   Verse
    Q=167
    $
    N.C.
    Gtrs I, II
    PM----|           PM---------------------
    E E E E E E E E   E E E E S S  E   E  E
||------------------|-----------------------|
||o-----------------|-----------------------|
||------------------|-----------------------|
||----------3-2-0h2-|-----------------------|
||o-----------------|-----------------------|
||--0-0-0-0---------|-0-0-0-0-0-0--0---0--0-|
|
|   Gtr III
|                                  ~~~~~~~
|   W                 Q   E E E    E  +Q
||------------------|-----------------------|
||o-----------------|-----------------------|
||------------------|-----------------------|
||------------------|-----9-7-----10-(10)---|
||o-----------------|---------8-------------|
||------------------|-----------------------|


 -------|     PM    PM-------------------|
  E E E E E E E E   E E  E E S S  E   E  E
|-----------------|-------------------------|
|-----------------|-------------------------|
|-----------------|-------------------------|
|-----------------|-------------------------|
|---------3p2-----|-------------------------|
|-0-0-0-0-----3-5-|-0-0--0-0-1-1--1---1--1--|
|
|                                 ~~~~~~~
| W                 Q    E E E    E  +Q
|-----------------|-------------------------|
|-----------------|-----10-9-----12-(12)----|
|-----------------|----------9--------------|
|-----------------|-------------------------|
|-----------------|-------------------------|
|-----------------|-------------------------|


  PM----|           PM---------------------
  E E E E E E E E   E E E E S S  E   E  E
|-----------------|-----------------------|
|-----------------|-----------------------|
|-----------------|-----------------------|
|---------3-2-0h2-|-----------------------|
|-----------------|-----------------------|
|-0-0-0-0---------|-0-0-0-0-0-0--0---0--0-|
|
|                                ~~~~~~~
| W                 Q   E E E    E  +Q
|-----------------|-----------------------|
|-----------------|-----------------------|
|-----------------|-----------------------|
|-----------------|-----9-7-----10-(10)---|
|-----------------|---------8-------------|
|-----------------|-----------------------|


                   1.
                    Gtr I
 -------|     PM    PM----|
  E E E E E E E E   E E E E E E  E E
|-----------------|--------------------||
|-----------------|-------------------o||
|-----------------|-------------10-----||
|-----------------|-----------9----9---||
|---------3p2-----|---------8---------o||
|-0-0-0-0-----3-5-|-0-0-0-0------------||
|
|                   Gtr II
|                   PM----|
| W                 E E E E E E  E E
|-----------------|--------------------||
|-----------------|-------------------o||
|-----------------|--------------------||
|-----------------|--------------3-----||
|-----------------|-----------2----2--o||
|-----------------|-0-0-0-0-1----------||


   Bridge
    2.=142
          G5         F#5          A5
   12/8
    Gtrs I, II
    PM--|      PM--|        PM--|      PM--------|
    E E E Q.   E E E Q.     E E E Q.   E E E E E E
||------------------------|------------------------|
||o-----------------------|------------------------|
||--------7----------6----|-------9----------------|
||--------5----------4----|-------7----------------|
||o-----------------------|------------7-------5---|
||--0-0-0------0-0-0------|-0-0-0--------5-0-3---3-|


                         1.,2.,3.                   4.     Q.=98
        G5         D5           E5   N.C.                  E5
                                                    6/8
  PM--|      PM--|        PM--|      PM------------------|
  E E E Q.   E E E Q.     E E E Q.   E E E E E E  4x E E E Q.
|-----------------------|-------------------------||------------||
|-----------------------|------------------------o||------------||
|-------7---------------|-------------------------||------------||
|-------5----------7----|-------9-----------------||-------9----||
|------------------5----|-------7----7-------5---o||-------7----||
|-0-0-0------0-0-0------|-0-0-0--------5-0-3---3--||-0-0-0------||


 Pre-Chorus
          Eb5/Bb
  Gtr I
  PM----|   PM------------|   PM------------|   PM------------|   PM--|
  E S S E E S S E   E S S E E S S E   E S S E E S S E   E S S E E S S E
|-----------------|-----------------|-----------------|-----------------|
|-----------------|-----------------|-----------------|-----------------|
|-----------------|-----------------|-----------------|-----------------|
|---------8-------|---------8-------|---------8-------|---------8-------|
|---------6-------|---------6-------|---------6-------|---------6-------|
|-0-0-0-0-6-0-0-0-|-0-0-0-0-6-0-0-0-|-0-0-0-0-6-0-0-0-|-0-0-0-0-6-0-0-0-|


  Gtrs I, II
  PM----|   PM------------|   PM------------|   PM------------|   PM--|
  E S S E E S S E   E S S E E S S E   E S S E E S S E   E S S E E S S E
|-----------------|-----------------|-----------------|-----------------|
|-----------------|-----------------|-----------------|-----------------|
|-----------------|-----------------|-----------------|-----------------|
|---------8-------|---------8-------|---------8-------|---------8-------|
|---------6-------|---------6-------|---------6-------|---------6-------|
|-0-0-0-0-6-0-0-0-|-0-0-0-0-6-0-0-0-|-0-0-0-0-6-0-0-0-|-0-0-0-0-6-0-0-0-|


              Bb5
    Gtr I
     ~~~~~~~~~~~~~~~~~~~~~~~~
     H.                  +H          E    E
||--------------------|---------------------|
||o-------------------|---------------------|
||--10----------------|-(10)---------9h==10-|
||--------------------|---------------------|
||o-------------------|---------------------|
||--------------------|---------------------|
|
|   Gtr II
|    PM-----|   PM---------------|   PM------
|    E  S S E E S S E     E  S S E E S S  E
||--------------------|---------------------|
||o-------------------|---------------------|
||------------3-------|------------3--------|
||------------3-------|------------3--------|
||o-----------1-------|------------1--------|
||---1--1-1-1---1-1-1-|---1--1-1-1---1-1--1-|


  ~~~~~~~~~~~~~~~~~~~~~~~
  H.                 +H.
|------------------|--------------------|
|------------------|--------------------|
|-9----------------|-(9)----------------|
|------------------|--------------------|
|------------------|--------------------|
|------------------|--------------------|
|
|--------|   PM--------------|   PM--|
| E  S S E E S S E    E  S S E E S S E
|------------------|--------------------|
|------------------|--------------------|
|----------3-------|-----------3--------|
|----------3-------|-----------3--------|
|----------1-------|-----------1--------|
|-1--1-1-1---1-1-1-|--1--1-1-1---1-1-1--|


  1.
             Eb5/Bb
    ~~~~~~~~~~~~~~~~~~~~~~~~
    H.                  +H          E    E
|--------------------|---------------------|
|-/10----------------|-(10)---------9h==10-|
|--------------------|---------------------|
|--------------------|---------------------|
|--------------------|---------------------|
|--------------------|---------------------|
|
|   PM-----|   PM---------------|   PM------
|   E  S S E E S S E     E  S S E E S S  E
|--------------------|---------------------|
|--------------------|---------------------|
|--------------------|---------------------|
|------------8-------|------------8--------|
|------------6-------|------------6--------|
|---0--0-0-0-6-0-0-0-|---0--0-0-0-6-0-0--0-|


  ~~~~~~~~~~~~~~~~~~~~~~~
  H.                 +H.
|------------------|--------------------||
|-9----------------|-(9)---------------o||
|------------------|--------------------||
|------------------|--------------------||
|------------------|-------------------o||
|------------------|--------------------||
|
|--------|   PM--------------|   PM--|
| E  S S E E S S E    E  S S E E S S E
|------------------|--------------------||
|------------------|-------------------o||
|------------------|--------------------||
|----------8-------|-----------8--------||
|----------6-------|-----------6-------o||
|-0--0-0-0-6-0-0-0-|--0--0-0-0-6-0-0-0--||


  2.
             Eb5/Bb
    ~~~~~~~~~~~~~~~~~~~~~~~~
    H.                  +H          E    E
|--------------------|---------------------|
|-/10----------------|-(10)---------9h==10-|
|--------------------|---------------------|
|--------------------|---------------------|
|--------------------|---------------------|
|--------------------|---------------------|
|
|   PM-----|   PM---------------|   PM------
|   E  S S E E S S E     E  S S E E S S  E
|--------------------|---------------------|
|--------------------|---------------------|
|--------------------|---------------------|
|------------8-------|------------8--------|
|------------6-------|------------6--------|
|---0--0-0-0-6-0-0-0-|---0--0-0-0-6-0-0--0-|


    ~~~~~~~~~~~~~~~~~~~~~~~~
    H.                  +H           E    E
|--------------------|----------------------|
|-/12----------------|-(12)---------12---12-|
|--------------------|----------------------|
|--------------------|----------------------|
|--------------------|----------------------|
|--------------------|----------------------|
|
|----------|   PM---------------|    PM--|
|   E  S S E E S S E     E  S S E E  S S  E
|--------------------|----------------------|
|--------------------|----------------------|
|--------------------|----------------------|
|------------8-------|------------8---------|
|------------6-------|------------6---------|
|---0--0-0-0-6-0-0-0-|---0--0-0-0-6--0-0--0-|


                    Bb5
                 ~~~~~~~~~~~~~~~~~~~~
   E   a   E    +E   Q.          +H           E    E
|-----------------------------|----------------------|
|-12-(12)s13---(13)-13--------|-(13)---------12h==13-|
|-----------------------------|----------------------|
|-----------------------------|----------------------|
|-----------------------------|----------------------|
|-----------------------------|----------------------|
|
|  PM----------|        PM---------------|    PM------
|  E       S S   E   E  S S E     E  S S E E  S S  E
|-----------------------------|----------------------|
|-----------------------------|----------------------|
|--------------------3--------|------------3---------|
|--------------------3--------|------------3---------|
|--------------------1--------|------------1---------|
|--1-------1-1---1------1-1-1-|---1--1-1-1----1-1--1-|


   ~~~~~~~~~~~~~~~~~~~~~~~~
   H.                  +H.
|-------------------|-----------------||
|-12----------------|-(12)------------||
|-------------------|-----------------||
|-------------------|-----------------||
|-------------------|-----------------||
|-------------------|-----------------||
|
|---------|   PM---------------|
|  E  S S E E S S E     E  S S E E Q
|-------------------|-----------------||
|-------------------|-----------------||
|-----------3-------|------------3----||
|-----------3-------|------------3----||
|-----------1-------|------------1----||
|--1--1-1-1---1-1-1-|---1--1-1-1------||


 Chorus
  Q=202
  N.C.
 4/4
    >
    ~~~~~~~~~~~~~~~~~~~~~~~~~
   +W                    +W
|---------------------|----------------------|
|-(12)----------------|-(12)-----------------|
|---------------------|----------------------|
|---------------------|----------------------|
|---------------------|----------------------|
|---------------------|----------------------|
|
|   PM-------------------------------------|
|   E  E E E  E E E E     E  E E E  E E  E E
|---------------------|----------------------|
|---------------------|----------------------|
|---------------------|----------------------|
|---------------------|----------------------|
|---7----9---10---6---|---7----9---10---12---|
|------0---0----0---0-|------0---0----0----0-|


  Gtr II
  PM---------------------------------|
  E E E E  E E E E   E E E E  E E  E E
|------------------|-------------------|
|------------------|-------------------|
|------------------|-------------------|
|------------------|-------------------|
|-7---9---10---6---|-7---9---10---12---|
|---0---0----0---0-|---0---0----0----0-|


    Gtrs I, II
    PM---------------------------------|
    E E E E  E E E E   E E E E  E E  E E
||-------------------|--------------------||
||o------------------|-------------------o||
||-------------------|--------------------||
||-------------------|--------------------||
||o-7---9---10---6---|-7---9---10---12---o||
||----0---0----0---0-|---0---0----0----0--||


       PM------|   PM------|     PM------|   PM------|
     E S S S S E E S S S S E   E S S S S E E S S S S E
||---------------------------|--------------------------|
||o--------------------------|--------------------------|
||---------------------------|--------------------------|
||---------------------------|--------------------------|
||o-10-----------9-----------|-7-----------6------------|
||-----8-8-8-8-8---8-8-8-8-8-|---5-5-5-5-5---5-5-5-5-5--|


  1.,2.,3.,D.S.
                              To Coda
  PM---------------------------------|
  E E E E  E E E E   E E E E  E E  E E  4x
|------------------|--------------------||
|------------------|-------------------o||
|------------------|--------------------||
|------------------|--------------------||
|-7---9---10---6---|-7---9---10---12---o||
|---0---0----0---0-|---0---0----0----0--||


 Solo (Schuldiner)
  4.112
  E5                     C5           D5
  Gtr I
  ~~~~~~~~~~~~~~~~~       ~~~            PM------|
  H.           +E  S S    H.             S   S S  S
|----------------------|----------------------------|
|----------------------|----------------------------|
|----------------------|----------------------------|
|----------------------|-----------------------7----|
|-9------------(9)-7h9-|-10--------------9--10---10-|
|----------------------|----------------------------|
|
| Gtr II
|     PM        PM-|          PM
| Q   E E +Q    E  E      Q   E E +E  E +Q
|----------------------|----------------------------|
|----------------------|----------------------------|
|----------------------|----------------------------|
|-2-----2-(2)----------|--5-----5-(5)-7-(7)---------|
|-2-----2-(2)----------|--3-----3-(3)-5-(5)---------|
|-0---0-0-(0)---0--0---|------0---------------------|


  E5                         C5             G5    A5
  ~       ~~~~~~~                           ~~~~~~
                                     |-3--|
  Q  S S  E  +Q    Q         +E  +E  S S  S E +H
|--------------------------|-----------------------------|
|--------------------------|-----------------------------|
|--------------------------|-----------------------------|
|-7--7h9-[9]-(9)--[7]b9====|=(7)-(7)r====================|
|--------------------------|---------7h9h10-9-(9)--------|
|--------------------------|-----------------------------|
|
|    PM            PM----|           PM
| Q  E    E  +Q    E     E    Q      E      E +E  E +Q
|--------------------------|-----------------------------|
|--------------------------|-----------------------------|
|--------------------------|-----------------------------|
|-2-------2--(2)-----------|--5--------------------------|
|-2-------2--(2)-----------|--3-------------5-(5)-7-(7)--|
|-0--0----0--(0)---0-----0-|---------0------3-(3)-5-(5)--|


  E5                       C5                       D5
    ~~~~~~~~~~~~~~~~~~~~~~~~~~~~~~~~~~~~~        ~~~
    Q.     Q.       Q      +E    E   +Q      a   Q.        S  S
|------------------------|--------------------------------------|
|------------------------|-----[12]-(12)---[12]h13--------12h13-|
|-[12]----11-------[9]---|-(9)----------------------------------|
|------------------------|--------------------------------------|
|------------------------|--------------------------------------|
|------------------------|--------------------------------------|
|
|       PM          PM-|              PM
|   Q   E  E  +Q    E  E    Q         E  E      +E  E +Q
|------------------------|--------------------------------------|
|------------------------|--------------------------------------|
|------------------------|--------------------------------------|
|---2------2--(2)--------|--5------------5------(5)-7-(7)-------|
|---2------2--(2)--------|--3------------3------(3)-5-(5)-------|
|---0---0--0--(0)---0--0-|------------0-------------------------|


  E5                      C5          G5      A5
   ~~~~~~~~~~~~
   H       +E   E  E  E    E  E  S  S  E  +H
|-----------------------|-----------------------------|
|-12------(12)----------|-----------------------------|
|--------------17-17-17-|-17S14-14S16-16-(16)---------|
|-----------------------|-----------------------------|
|--------------15-15-15-|-15S12-12S14-14-(14)---------|
|-----------------------|-----------------------------|
|
|     PM           PM|           PM
|  Q  E E  +Q      E  E    Q     E     E  +E  E +Q
|-----------------------|-----------------------------|
|-----------------------|-----------------------------|
|-----------------------|-----------------------------|
|--2----2--(2)----------|--5--------------------------|
|--2----2--(2)----------|--3-----------5--(5)-7-(7)---|
|--0--0-0--(0)-----0--0-|--------0-----3--(3)-5-(5)---|


  E5                   C5           D5
   Q   E E +Q   E  E    H       +E   E  E    E
|--------------------|-------------------------|
|--------------------|-------------------------|
|-16--\9-9-(9)--9s12-|-12------(12)-11-11--/14-|
|--------------------|-------------------------|
|-14--\7-7-(7)--7s10-|-10------(10)--9--9--/12-|
|--------------------|-------------------------|
|
|      PM       PM|        PM
|  Q   E E +Q   E  E    Q  E E  +E   E +Q
|--------------------|-------------------------|
|--------------------|-------------------------|
|--------------------|-------------------------|
|--2-----2-(2)-------|--5----5--(5)--7-(7)-----|
|--2-----2-(2)-------|--3----3--(3)--5-(5)-----|
|--0---0-0-(0)--0--0-|-----0-------------------|


  E5                       C5          G5           A5
                       ~~~~~~~~~                               ~~~
   H.            S  S  E    +Q    S  S  S  S  S   S  S  S  S   E.
|------------------------|-----------------------------------------|
|------------------17----|-----------------------------------------|
|-14------------14----16-|-(16)-----14-16-17-16--14----14----------|
|------------------------|-------14-----------------17----17--16---|
|-12---------------------|-----------------------------------------|
|------------------------|-----------------------------------------|
|
|      PM        PM---|           PM
|  Q   E E +Q    E     E     Q    E     E    +E      E    +Q
|------------------------|-----------------------------------------|
|------------------------|-----------------------------------------|
|------------------------|-----------------------------------------|
|--2-----2-(2)-----------|---5-------------------------------------|
|--2-----2-(2)-----------|---3----------5----(5)-----7----(7)------|
|--0---0-0-(0)---0-----0-|--------0-----3----(3)-----5----(5)------|


  E5
    ~~~~ PM-------------------------------------------------------------------|
   +Q    T  T  T  T  T  T  T  T  T   T  T  T  T  T  T  T  T  T  T  T  T  T  T  T
|--------------------------------------------------------------------------------|
|--------------------------------------------------------------------------------|
|-------17-17-16-14-------------17--17-16-14-------------17-17-16-14-------------|
|-(16)--------------17-17-16-14--------------17-17-16-14-------------17-17-16-14-|
|--------------------------------------------------------------------------------|
|--------------------------------------------------------------------------------|
|
|        PM                                               PM---------|
|   Q    E           E          +Q                        E           E
|--------------------------------------------------------------------------------|
|--------------------------------------------------------------------------------|
|--------------------------------------------------------------------------------|
|---2----------------2----------(2)----------------------------------------------|
|---2----------------2----------(2)----------------------------------------------|
|---0----0-----------0----------(0)-----------------------0-----------0----------|


  C5                                                           D5
   PM--------------------------------------------------------------------------------------------|
   T  T  T  T  T  T  T  T  T  T  T  T  T  T  T  T  T   T  T  T  T  T  T  T  T   T  T  T  T  T  T  T
|---------------------------------------------------------------------------------------------------|
|---------------------------------------------------------------------------------------------------|
|-17-16-14----------17-16-14----------17-16-14-----------17-16-14-----------------------------------|
|----------17-16-14----------17-16-14----------17-16--14----------17-16-14--------------------------|
|--------------------------------------------------------------------------17--15-14----------------|
|------------------------------------------------------------------------------------17-15-14-15-17-|
|
|                          PM
|  Q                       E           E          +E            E          +Q
|---------------------------------------------------------------------------------------------------|
|---------------------------------------------------------------------------------------------------|
|---------------------------------------------------------------------------------------------------|
|--5-----------------------------------5----------(5)-----------7----------(7)----------------------|
|--3-----------------------------------3----------(3)-----------5----------(5)----------------------|
|--------------------------0------------------------------------------------------------------------|


  E5                    C5          G5      A5
   ~~~
   H.            E  E    E  E  S  S  E  +Q.        +E
|---------------------|---------------------------------||
|---------------------|---------------------------------||
|---------------21-21-|-21S16-16s19-19-(19)-------(19)\-||
|---------------------|---------------------------------||
|-14------------19-19-|-19S14-14s17-17-(17)-------(17)\-||
|---------------------|---------------------------------||
|
|      PM        PM|           PM
|  Q   E E +Q    E  E    Q     E     E  +E  E +E   +E
|---------------------|---------------------------------||
|---------------------|---------------------------------||
|---------------------|---------------------------------||
|--2-----2-(2)--------|--5------------------------------||
|--2-----2-(2)--------|--3-----------5--(5)-7-(7)--(7)\-||
|--0---0-0-(0)---0--0-|--------0-----3--(3)-5-(5)--(5)\-||


   Interlude
    Q.=120
    N.C.
   12/8
    Gtr I
           T                              T
    E E E  Q.    +H.              E  E E  Q     a   E  +H.
||----------------------------|-------------------------------------------|
||o---------------------------|-------------------------------------------|
||--0h5h8-17----(17)----------|---0h=5h8-17---(17)s19-(19)----------------|
||----------------------------|-------------------------------------------|
||o---------------------------|-------------------------------------------|
||----------------------------|-------------------------------------------|
|
|   Gtr IV
|                        T                                     T
|   H.            E E E  Q.      +Q.      Q.            E E E  Q    a   E
||----------------------------|-------------------------------------------|
||o---------------------------|-------------------------------------------|
||----------------0h5h8-17----|-(17)--------------------0h5h8-17--(17)s19-|
||----------------------------|-------------------------------------------|
||o---------------------------|-------------------------------------------|
||----------------------------|-------------------------------------------|


             T
    E  E  E  Q.    +H.
|--------------------------------|
|--------------------------------|
|---0h=7h10-19----(19)-----------|
|--------------------------------|
|--------------------------------|
|--------------------------------|
|
|                           T
|  +Q.       Q.     E E  E  Q.
|--------------------------------|
|--------------------------------|
|-(19)--------------0h7h10-19----|
|--------------------------------|
|--------------------------------|
|--------------------------------|


             T
    E  E  E  Q     a   E  +H.
|----------------------------------------------|
|----------------------------------------------|
|---0h=7h10-19---(19)s20-(20)------------------|
|----------------------------------------------|
|----------------------------------------------|
|----------------------------------------------|
|
|                                  T
|  +Q.       Q.            E E  E  Q    a   E
|----------------------------------------------|
|----------------------------------------------|
|-(19)---------------------0h7h10-19--(19)s20--|
|----------------------------------------------|
|----------------------------------------------|
|----------------------------------------------|


             T                                T
    E  E  E  Q.    +H.               E  E  E  Q.    +H.
|--------------------------------|--------------------------------|
|--------------------------------|--------------------------------|
|---0h=7h10-20----(20)-----------|---0h=7h10-22----(22)-----------|
|--------------------------------|--------------------------------|
|--------------------------------|--------------------------------|
|--------------------------------|--------------------------------|
|
|                           T                                T
|  +Q.       Q.     E E  E  Q.      +Q.       Q.     E E  E  Q.
|--------------------------------|--------------------------------|
|--------------------------------|--------------------------------|
|-(20)--------------0h7h10-20----|-(20)--------------0h7h10-22----|
|--------------------------------|--------------------------------|
|--------------------------------|--------------------------------|
|--------------------------------|--------------------------------|


             T                                T
    E  E  E  Q.    +H.               E  E  E  Q.    +H.
|--------------------------------|---------------------------------||
|--------------------------------|--------------------------------o||
|---0h=7h10-22----(22)-----------|---0h=7h10-19----(19)------------||
|--------------------------------|---------------------------------||
|--------------------------------|--------------------------------o||
|--------------------------------|---------------------------------||
|
|                           T                                T
|  +Q.       Q.     E E  E  Q.      +Q.       Q.     E E  E  Q.
|--------------------------------|---------------------------------||
|--------------------------------|--------------------------------o||
|-(22)--------------0h7h10-22----|-(22)--------------0h7h10-19-----||
|--------------------------------|---------------------------------||
|--------------------------------|--------------------------------o||
|--------------------------------|---------------------------------||


  Gtr I
              T
    E   E  E  Q.        +H.
|------------------------------------------|
|------------------------------------------|
|---0h==5h=8-17--------(17)----------------|
|------------------------------------------|
|------------------------------------------|
|------------------------------------------|
|
| Gtr IV
|                                 T
|  +Q.        Q.         E  E  E  Q.
|------------------------------------------|
|------------------------------------------|
|-(19)-------------------0h=5h=8-17--------|
|------------------------------------------|
|------------------------------------------|
|------------------------------------------|
|
| Gtr II
|   PM--------------------------------------
|   E   E  E  E   E  E   E  E  E  E   E  E
|------------------------------------------|
|------------------------------------------|
|------------10--12-13-----------10--12-13-|
|--10--12-13------------10-12-13-----------|
|------------------------------------------|
|------------------------------------------|


              T
    E   E  E  Q       a   E  +H.
|----------------------------------------------------|
|----------------------------------------------------|
|---0h==5h=8-17-----(17)s19-(19)---------------------|
|----------------------------------------------------|
|----------------------------------------------------|
|----------------------------------------------------|
|
|                                      T
|  +Q.        Q.              E  E  E  Q      a   E
|----------------------------------------------------|
|----------------------------------------------------|
|-(17)------------------------0h=5h=8-17----(17)s19--|
|----------------------------------------------------|
|----------------------------------------------------|
|----------------------------------------------------|
|
|------------------------------------------------|
|   E   E  E  E   E       E   E  E  E  E  E       E
|----------------------------------------------------|
|----------------------------------------------------|
|------------10--12------13-----------10-12------13--|
|--10--12-13-----------------10-12-13----------------|
|----------------------------------------------------|
|----------------------------------------------------|


             T
    E  E  E  Q.        +H.
|-----------------------------------------|
|-----------------------------------------|
|---0h=7h10-19--------(19)----------------|
|-----------------------------------------|
|-----------------------------------------|
|-----------------------------------------|
|
|                                T
|  +Q.       Q.         E  E  E  Q.
|-----------------------------------------|
|-----------------------------------------|
|-(19)------------------0h=7h10-19--------|
|-----------------------------------------|
|-----------------------------------------|
|-----------------------------------------|
|
|   E  E  E  E   E  E   E  E  E  E   E  E
|-----------15------------------15--------|
|--13p12--------13-----13p12--------13----|
|--------12--------12--------12--------12-|
|-----------------------------------------|
|-----------------------------------------|
|-----------------------------------------|


             T
    E  E  E  Q       a   E  +H.
|------------------------------------------------|
|------------------------------------------------|
|---0h=7h10-19-----(19)s20-(20)------------------|
|------------------------------------------------|
|------------------------------------------------|
|------------------------------------------------|
|
|                                    T
|  +Q.       Q.              E E  E  Q    a   E
|------------------------------------------------|
|------------------------------------------------|
|-(19)-----------------------0h7h10-19--(19)s20--|
|------------------------------------------------|
|------------------------------------------------|
|------------------------------------------------|
|
|                            ~~~~
|   E  E  E  E   E       E   H.
|-----------15-----------------------------------|
|--13p12--------13-------------------------------|
|--------12-------------12--12-------------------|
|------------------------------------------------|
|------------------------------------------------|
|------------------------------------------------|


              T
    E   E  E  Q.        +H.
|------------------------------------------|
|------------------------------------------|
|---0h==7h10-20--------(20)----------------|
|------------------------------------------|
|------------------------------------------|
|------------------------------------------|
|
|                                 T
|  +Q.        Q.         E  E  E  Q.
|------------------------------------------|
|------------------------------------------|
|-(20)-------------------0h=7h10-20--------|
|------------------------------------------|
|------------------------------------------|
|------------------------------------------|
|
|   PM--------------------------------------
|   E   E  E  E   E  E   E  E  E  E   E  E
|------------------------------------------|
|------------------------------------------|
|------------10--12-13-----------10--12-13-|
|--10--12-13------------10-12-13-----------|
|------------------------------------------|
|------------------------------------------|


              T
    E   E  E  Q.        +H.
|------------------------------------------|
|------------------------------------------|
|---0h==7h10-22--------(22)----------------|
|------------------------------------------|
|------------------------------------------|
|------------------------------------------|
|
|                                 T
|  +Q.        Q.         E  E  E  Q.
|------------------------------------------|
|------------------------------------------|
|-(20)-------------------0h=7h10-22--------|
|------------------------------------------|
|------------------------------------------|
|------------------------------------------|
|
|---------------------------------------|
|   E   E  E  E   E  E   E  E  E  E   E  E
|------------------------------------------|
|------------------------------------------|
|------------10--12-13-----------10--12-13-|
|--10--12-13------------10-12-13-----------|
|------------------------------------------|
|------------------------------------------|


                                                             D.S. al Coda
                                           11/8
             T                                         T
    E  E  E  Q.        +H.                    E  E  E  Q.        +Q.      Q
|-----------------------------------------|-----------------------------------||
|-----------------------------------------|-----------------------------------||
|---0h=7h10-22--------(22)----------------|---0h=7h10-19--------(19)----------||
|-----------------------------------------|-----------------------------------||
|-----------------------------------------|-----------------------------------||
|-----------------------------------------|------------------------------12\--||
|
|                                T
|  +Q.       Q.         E  E  E  Q.          +Q.       Q.         E E  E  Q
|-----------------------------------------|-----------------------------------||
|-----------------------------------------|-----------------------------------||
|-(22)------------------0h=7h10-22--------|-(22)------------------0h7h10------||
|-----------------------------------------|-----------------------------------||
|-----------------------------------------|-----------------------------------||
|-----------------------------------------|-----------------------------------||
|
|                                                                 ~~~~
|   E  E  E  E   E  E   E  E  E  E   E  E     E  E  E  E   E  E   Q.      Q
|-----------15------------------15--------|-----------15----------------------||
|--13p12--------13-----13p12--------13----|--13p12--------13-----15-----------||
|--------12--------12--------12--------12-|--------12--------12---------------||
|-----------------------------------------|-----------------------------------||
|-----------------------------------------|-----------------------------------||
|-----------------------------------------|------------------------------12\--||


 Outro
  Q=202
  &
                                         Eb5
 4/4
  Gtrs I, II
     PM------|   PM------|     PM------|
   E S S S S E E S S S S E   E S S S S E Q  Q
|--------------------------|-------------------*|
|--------------------------|-------------------*|
|--------------------------|-------------------*|
|--------------------------|-------------8-----*|
|-10-----------9-----------|-7-----------6-----*|
|----8-8-8-8-8---8-8-8-8-8-|---5-5-5-5-5-------*|



Duration Legend
---------------
W - whole; H - half; Q - quarter; E - 8th; S - 16th; T - 32nd; X - 64th; a - acciaccatura
+ - note tied to previous; . - note dotted; .. - note double dotted
Uncapitalized letters represent notes that are staccato (1/2 duration)
Irregular groupings are notated above the duration line
Duration letters will always appear directly above the note/fret number it represents the
duration for.  Duration letters with no fret number below them represent rests.  Multi-
bar rests are notated in the form Wxn, where n is the number of bars to rest for.  Low
melody durations appear below the staff

Tablature Legend
----------------
 h   - hammer-on
 p   - pull-off
 b   - bend
 pb  - pre-bend
 r   - bend release (if no number after the r, then release immediately)
 /\  - slide into or out of (from/to "nowhere")
 s   - legato slide
 S   - shift slide
 - natural harmonic
[n]  - artificial harmonic
n(n) - tapped harmonic
 ~   - vibrato
 tr  - trill
 T   - tap
 TP  - trem. picking
 PM  - palm muting
\n/  - tremolo bar dip; n = amount to dip
 \n  - tremolo bar down
 n/  - tremolo bar up
/n\  - tremolo bar inverted dip
 =   - hold bend; also acts as connecting device for hammers/pulls
 <> - volume swell (louder/softer)
 x   - on rhythm slash represents muted slash
 o   - on rhythm slash represents single note slash

Misc Legend
-----------
 |  - bar
||  - double bar
||o - repeat start
o|| - repeat end
*|  - double bar (ending)
 :  - bar (freetime)
 $  - Segno
 &  - Coda
Tempo markers -  = BPM(8/16=s8/s16), where s8 = swing 8ths, s16 = swing 16ths


            
            
Suggest correction
Creating personal tab
Creating personal tab
You can edit any tab online and save it as your Personal.

You can edit, replace or remove any tab part or add personal notes – all changes will be seen only by you.

Personal tabs can be accessed anytime from any device, even offline.
Learn more »
comments
print report bad tab
guest
You may want to rate the tab now too:
select rating
Wanna post a correction for this tab? Suggest correction