Oops, an error
Loading. Please wait.

Cath bass

version 3
version 3

Whole song

Interactive

2,720 views 6 this week
1 commentread comment
1 2 3 4 5
2 more votes to show rating
add to favorites
×
Save as Personal and add changes to this tab that will be seen only by you. Learn more ›
×
You can save this tab as Personal to edit and correct it or add notes. All changes will be seen only by you. Learn more »
launch autoscroll
font size
0
reset
guitar tuner
edit
Autoscroll
slow
fast
+/-
esc
set tempo
stop
-----------------------------------------------------------------------------
                             CATH - Death Cab For Cutie
-----------------------------------------------------------------------------

Tabbed By : junky_man
e-mail: junky_man@yahoo.com

Tuning: Standard EADG

I believe this is 97% correct. Probably some timing and little nuances I can't properly 
at the moment but I can guarantee that this is most accurate bass interpretation for 
out there. Please rate!


Intro
Start at 0:18
G|---------------------------------------------------------------|
D|--------------------6/9~~--------------------------------------|
A|---9999----7776~-66--------------------------------------------|
E|---------------------------------------------------------------|

G|----------------------------------------------9-11-14-------------|
D|-----6h7--9-11~-----------7~----6h7--9-11~-----------11~12-14-----|
A|---55---00-------5/7\5-0~-----55---00-----------------------------|
E|------------------------------------------------------------------|


Verse 1

G|----------------------------------------------9-11-14-------------|
D|-----6h7--9-11~-----------7~----6h7--9-11~-----------11~12-14-----| x3times
A|---55---00-------5/7\5-0~-----55---00-----------------------------|
E|------------------------------------------------------------------|

G|----------------------------------------------9-11-14-------------|
D|-----6h7--9-11~-----------7~----6h7--9-11~-----------11~-9--7-----|
A|---55---00-------5/7\5-0~-----55---00-----------------------------|
E|------------------------------------------------------------------|


Chorus
G|------------------------------------------------------------------|
D|---------------6/9~~------6h7--9-11----------7--------------------|x2times
A|---99~~77~~66~~---------55---0~------5/7\5-0~---------------------|
E|------------------------------------------------------------------|


Pre-verse 2
G|------------------------------------------------18-14----------------|
D|-----6h7--9-11~-----------7~----6h7--9-11~----14-----16-14-12-11-9-7-|
A|---55---00-------5/7\5-0~-----55---00--------------------------------|
E|---------------------------------------------------------------------|


Verse 2
G|----------------------------------------------9-11-14-------------|
D|-----6h7--9-11~-----------7~----6h7--9-11~-----------11~12-14-----|
A|---55---00-------5/7\5-0~-----55---00-----------------------------|
E|------------------------------------------------------------------|

G|----------------------------------------------9-11-14-------------|
D|-----6h7--9-11~-----------7~----6h7--9-11~-----------11~-9--7-----|
A|---55---00-------5/7\5-0~-----55---00-----------------------------|
E|------------------------------------------------------------------|


G|---------------------------------------------------------------|
D|---------------------------------------------------------------|
A|---5-5-5-5/12-12-12-12-----------------------------------------| x 8 times
E|---------------------------------------------------------------|


Chorus
G|------------------------------------------------------------------|
D|---------------6/9~~------5h7--9-11----------7--------------------|x2times
A|---99~~77~~66~~---------55---0~------5/7\5-0~---------------------|
E|------------------------------------------------------------------|


Outro
G|-------------------------------------------------------------------|
D|------------------------6/9~~----------------6/9~~-----------------|
A|---99~~77~6~66~~55~~44~~---------99~~77~~66~~----------------------|
E|-------------------------------------------------------------------|

G|------------------------------------------------18-14----------------|
D|-----6h7--9-11~-----------7~----6h7--9-11~----14-----16-14-12-11-9-7-|
A|---55---00-------5/7\5-0~-----55---00--------------------------------|
E|---------------------------------------------------------------------|

G|-------------------------------------------|
D|-------------------------------------------|
A|---9999-7777-6~~---------------------------|
E|-------------------------------------------|

| /  slide up
| \  slide down
| h  hammer-on
| p  pull-off
| ~  vibrato
| +  harmonic
| x  Mute note
=============================================================================

            
            
Suggest correction
Creating personal tab
Creating personal tab
You can edit any tab online and save it as your Personal.

You can edit, replace or remove any tab part or add personal notes – all changes will be seen only by you.

Personal tabs can be accessed anytime from any device, even offline.
Learn more »
Give kudos to tab author, rate the tab!
1 2 3 4 5
comments
print report bad tab
1 comment total.
0 reply
mattedbird 20 Dec 19, 2015 01:48 PM

Nice work. Great bass line.

guest
You may want to rate the tab now too:
select rating
Wanna post a correction for this tab? Suggest correction