Oops, an error
Loading. Please wait.

Cath tab

version 1
version 1

Interactive

61,733 views 3 this week
2 commentsread comments
1 2 3 4 5
x 8
add to favorites
×
Save as Personal and add changes to this tab that will be seen only by you. Learn more ›
×
You can save this tab as Personal to edit and correct it or add notes. All changes will be seen only by you. Learn more »
launch autoscroll
font size
0
reset
how to read this tab
guitar tuner
edit
Autoscroll
slow
fast
+/-
esc
set tempo
stop
An old Ben Gibbard release that's on the new cd coming out in May called Narrow Stairs.
I play half step down so it's with Capo 3 but if you're in standard it's Capo 2.


intro thing (can strum):
eb|--0----------0-|
Bb|--0------0---0-|
Gb|--2/4--4---4-0-|
Db|---------------|
Ab|---------------|
Eb|---------------|


basic verse stuff:
eb|--0-----------0-----------------|
Bb|--8----\------3-----------------|
Gb|--0-----------0-----------------|
Db|--0-----------0-----------------|
Ab|--7----\------2-----------------|
Eb|--8----\------3-----------------|


another hammer on thing:
eb|---------------------------------|
Bb|---------------3-----------------|
Gb|-----------0---0-----------------|
Db|----0h2-2h4----0-----------------|
Ab|--3------------2-----------------|
Eb|-------------3-3-----------------|


bridge or pre-chorus:
eb|--0---0--0------------------------|
Bb|--5---4--3------------------------|
Gb|--0---0--0------------------------|
Db|--0---0--0------------------------|
Ab|--4---3--2------------------------|
Eb|--5---4--3------------------------|

or

eb|--0---0--0------------------------|
Bb|--5---3--2------------------------|
Gb|--0---0--0------------------------|
Db|--0---0--0------------------------|
Ab|--7---5--4------------------------|
Eb|----------------------------------|

            
            
Suggest correction
Creating personal tab
Creating personal tab
You can edit any tab online and save it as your Personal.

You can edit, replace or remove any tab part or add personal notes – all changes will be seen only by you.

Personal tabs can be accessed anytime from any device, even offline.
Learn more »
comments
print report bad tab
2 comments total.
0 reply
chloeb81 10 Apr 15, 2008 04:38 AM

Seems pretty spot on to me! Thanks for this!x

0 reply
tbuhler 337 May 24, 2008 07:41 PM

Sorry...but I'm not feeling it. This tab isn't very accurate.

guest
You may want to rate the tab now too:
select rating
Wanna post a correction for this tab? Suggest correction