Oops, an error
Loading. Please wait.
We have an official Lack Of Color tab made by UG professional guitarists. Check out the tab »
×
59,839 views 39 this week
1 commentread comment
1 2 3 4 5
x 8
add to favorites
×
Save as Personal and add changes to this tab that will be seen only by you. Learn more ›
×
You can save this tab as Personal to edit and correct it or add notes. All changes will be seen only by you. Learn more »
launch autoscroll
font size
0
reset
how to read this tab
guitar tuner
edit
Autoscroll
slow
fast
+/-
esc
set tempo
stop
-------------------------------------------------------------------------------
                 Lack of Color Tab - Death Cab for Cutie
-------------------------------------------------------------------------------
From the album Transatlanticism

Tabbed by: Brontosaurus
Email: myopicman@hotmail.com

Tuning:
Tune to drop D, then put a capo on the 1st fret. Your strings play like
this now, when open:
F----
C----
G#---
D#---
A#---
D#---


[Intro]

F--------------------------------------------------------------------|
C--------------------------------------------------------------------|
G#-------------------------------------------------------------------|
D#---4---4---4---4---4---4---0---0--s4---4---4---4---4---4---2---2---|
A#-------------------------------------------------------------------|
D#-----0---0---0---0---0---0---0---0---0---0---0---0---0---0---0---0-|


F--------------------------------------------------------------------|
C----3---3---3---3---3---3---------------------------3---3-----------|
G#---------------------------2---2---0---0---0---0-----------2---2---|
D#-------------------------------------------------------------------|
A#-----2---2---2---2---2---2---2---2---2---2---2---2---2---2---2---2-|
D#-------------------------------------------------------------------|

repeat x8


[Chorus]

F-------------------------------------------|
C------------------2------------------2-----|
G#-----------------2------------------------|
D#-----------------2------------------2-----|
A#-----------------0------------------1-----|
D#------------------------------------------|
reaching for the phone, To call at 7:02

F------------------------------------------------------|
C---------------3--------------3-----------------------|
G#--------------4--------------4-------------------4---|
D#--------------4--------------4-------------------0---|
A#--------------2--------------0-------------------6---|
D#-------------------------------------------------6---|
and on your machine I slur a plea for you to come home

F----------------------------------------------------|
C----2-----------------------2-----------------------|
G#---2-----------------------------------------------|
D#---2-----------------------2-----------------------|
A#---0-----------------------1-----------------------|
D#---------------------------------------------------|
     ...but I know it's too late, and  I should have

F-------------------------------|
C----3-----------3--------------|
G#---4-----------2----------4---|
D#---4-----------0----------0---| repeat x3
A#---2-----------0----------6---|
D#--------------------------6---|
    given you a reason to stay


[Outro]

F--------------------------------------------------------------------|
C--------------------------------------------------------------------|
G#-------------------------------------------------------------------|
D#---4---4---4---4---4---4-----------4---4---4---4---4---4---2---2---|
A#---------------------------6---6-----------------------------------|
D#-----0---0---0---0---0---0---0---0---0---0---0---0---0---0---0---0-|


F--------------------------------------------------------------------|
C----3---3---3---3---3---3---------------------------3---3-----------|
G#---------------------------2---2---0---0---0---0-----------2---2---|
D#-------------------------------------------------------------------|
A#-----2---2---2---2---2---2---2---2---2---2---2---2---2---2---2---2-|
D#-------------------------------------------------------------------|

repeat x1

            
            
Suggest correction
Creating personal tab
Creating personal tab
You can edit any tab online and save it as your Personal.

You can edit, replace or remove any tab part or add personal notes – all changes will be seen only by you.

Personal tabs can be accessed anytime from any device, even offline.
Learn more »
comments
print report bad tab
1 comment total.
0 reply
joekap93 10 Jul 25, 2008 06:36 PM

who are you...

guest
You may want to rate the tab now too:
select rating
Wanna post a correction for this tab? Suggest correction