Oops, an error
Loading. Please wait.

Monday Morning Acoustic tab

418 views 1 this week
no commentswrite comment
1 2 3 4 5
x 3
add to favorites
×
Save as Personal and add changes to this tab that will be seen only by you. Learn more ›
×
You can save this tab as Personal to edit and correct it or add notes. All changes will be seen only by you. Learn more »
launch autoscroll
font size
0
reset
how to read this tab
guitar tuner
edit
Autoscroll
slow
fast
+/-
esc
set tempo
stop
Author
Difficulty
-------------------------------------------------------------------------------
                             Monday Morning Live Acoustic - Death Cab For Cutie
-------------------------------------------------------------------------------
Tabbed by: kgfavela
This is from their live acoustic version (https://www.youtube.com/watch?v=1gsvr12zjA8). 
It's quite precise & fun to play!

Tuning: Standard

e|---------------------------------------------------------------------------|
B|---------------------------------------------------------------------------|
G|---------------------------------------------------------------------------|
D|--14--14--14--14--14--11--14--16--16--16--14--14--11--11--11--11--11-------|
A|--0---0---0---0---0---0---0---0---0---0---0---0---0---0---0---0---0--------|
E|---------------------------------------------------------------------------|

e|---------------------------------------------------------------------------|
B|---------------------------------------------------------------------------|
G|---------------------------------------------------------------------------|
D|--14--14--14--14--11--14--16--16--16--14--14--12--12--11--11--11-----------|
A|--0---0---0---0---0---0---0---0---0---0---0---0---0---0---0---0------------|
E|---------------------------------------------------------------------------|

e|---------------------------------------------------------------------------|
B|---------------------------------------------------------------------------|
G|--11--11-------------------------------------------------------------------|
D|--0---0---7--7--11--11--11--11--11--11--11--11--11--11--11--11-------------|
A|--0---0---0--0--0---0---0---0---0---0---0---0---0---0---0---0--------------|
E|---------------------------------------------------------------------------|

e|---------------------------------------------------------------------------|
B|---------------------------------------------------------------------------|
G|--11--11-------------------------------------------------------------------|   All these x5
D|--0---0---7--7--11--7--7--7--7--7--7--7--7--7--7---------------------------|  
A|--0---0---0--0--0---0--0--0--0--0--0--0--0--0--0---------------------------|
E|---------------------------------------------------------------------------|


The night...surround you
(D) for 8 beats
e|---2----------------|
B|---3----------------|
G|---2----------------|
D|---0----------------|
A|--------------------|
E|--------------------|
     
(A) for 8 beats
e|---0----------------|
B|---5----------------|
G|---6----------------|
D|---7----------------|
A|---0----------------|
E|--------------------|

When you're looking...astound you
(D) for 8 beats
e|---2----------------|
B|---3----------------|
G|---2----------------|
D|---0----------------|
A|--------------------|
E|--------------------|


(A) for 8 beats
e|---0----------------|
B|---5----------------|
G|---6----------------|
D|---7----------------|
A|---0----------------|
E|--------------------|

But all these lines and greys refine
(D)
e|---2----------------|
B|---3----------------|
G|---2----------------|
D|---0----------------|
A|--------------------|
E|--------------------|

They are...of our design
(F#Major)
e|--2-----------------|
B|--2-----------------|
G|--3-----------------|
D|--4-----------------|
A|--4-----------------|
E|--2-----------------|

Of what began...morning
(D)
e|---2----------------|
B|---3----------------|
G|---2----------------|
D|---0----------------|
A|--------------------|
E|--------------------|

(A)
e|---0----------------|
B|---5----------------|
G|---6----------------|
D|---7----------------|
A|---0----------------|
E|--------------------|


Monday morning, Monday morning    -    Oh,     oh        Oh,    oh
(A)                                    (D)     (A)      (D)     (A)
e|--0----------------------------------2--------0--------2-------0-------|       
B|--2----------------------------------3--------2--------3-------2-------|
G|--2----------------------------------2--------2--------2-------2-------|   x2
D|--2----------------------------------0--------2--------0-------2-------|
A|--0-------------------------------------------0----------------0-------|
E|-----------------------------------------------------------------------|



Repeat from "The night..." to the end and you're done


************************************

| /   slide up
| \   slide down
| h   hammer-on
| p   pull-off
| ~   vibrato
| +   harmonic
| x   Mute note
| b   Bend
| pb  Pre-bend
| br  Bend release
| pbr Pre-bend release
| brb Bend release bend

************************************

            
            
Suggest correction
Creating personal tab
Creating personal tab
You can edit any tab online and save it as your Personal.

You can edit, replace or remove any tab part or add personal notes – all changes will be seen only by you.

Personal tabs can be accessed anytime from any device, even offline.
Learn more »
Give kudos to tab author, rate the tab!
1 2 3 4 5
comments
print report bad tab
guest
You may want to rate the tab now too:
select rating
Wanna post a correction for this tab? Suggest correction