Oops, an error
Loading. Please wait.

Transatlanticism chords

version 3
version 3

Whole song

Interactive

1,432 views 21 this week
no commentswrite comment
1 2 3 4 5
x 3
add to favorites
×
Save as Personal and add changes to this tab that will be seen only by you. Learn more ›
×
You can save this tab as Personal to edit and correct it or add notes. All changes will be seen only by you. Learn more »
launch autoscroll
font size
0
reset
transpose
0
reset
display chords
guitar tuner
edit
Autoscroll
slow
fast
+/-
esc
set tempo
stop
Author
Difficulty
intermediate
Strumming
There is no strumming pattern for this song yet. and get +5 IQ
[Verse]
A                      C#m                     D    F#m
The atlantic was born today and I'll tell you how:
A                      C#m              D    F#m E
The clouds above opened up and let it out.
      A                             C#m                    
I was standing on the surface of a perforated sphere
          D                 F#m   E
When the water filled every hole.
    A                                 C#m                           
And thousands upon thousands made an ocean, 
                     D                F#m E
Making islands where no island should go.
Oh no.

(Guitar 1)
A C#m D F#m
A C#m D F#m E

(Guitar 2)
e|--2------4-----5----------------------------------------------------------|
B|--3-----------------------------------------------------------------------|
G|--2--2-4---4-6------------------------------------------------------------|
D|--0-----------------------------------------------------------------------|
A|--------------------------------------------------------------------------| 
E|--------------------------------------------------------------------------|

A                      C#m                     D           F#m
Those people were overjoyed; they took to their boats.
A                         C#m                  D           F#m 
I thought it less like a lake and more like a moat. 

(Guitar 2)
e|-------4---------4---|---------------------------------|--------------------|
B|----5----5----5----5-|---5---5---5---5---5---5---5---5-|---5---5---5---5----|
G|--6---------7--------|-7---6---7---6---7---6---7---6---|-7---6---6---6------|
D|---------------------|---------------------------------|--------------------|
A|-------play this 2x--|---------------------------------|--------------------|  (x4)
E|---------------------|---------------------------------|--------------------|

[Verse]
    A                               C#m                          
The rhythm of my footsteps crossing flood lands to your door have been 
D                F#m
Silenced forever more.
    A                                 C#m
The distance is quite simply much too far for me to row
         D                 F#m    E
It seems farther than ever before
Oh no.

(Guitar 2)
e|--2------4-----5----------------------------------------------------------|
B|--3-----------------------------------------------------------------------|
G|--2--2-4---4-6------------------------------------------------------------|
D|--0-----------------------------------------------------------------------|
A|--------------------------------------------------------------------------| 
E|--------------------------------------------------------------------------|

[Bridge]
D           A            F#m          E
I need you so much closer (4x)
F#m        C#m            D           E  
I need you so much closer (4x)

[Outro]
(Guitar 2 together 8x)
(Guitar 2)
e|--2------4-----5----------------------------------------------------------|
B|--3-----------------------------------------------------------------------|
G|--2--2-4---4-6------------------------------------------------------------|
D|--0-----------------------------------------------------------------------|
A|--------------------------------------------------------------------------| 
E|--------------------------------------------------------------------------|

D (4x) A (2x) F E
So Come on

            
            
Suggest correction
Creating personal tab
Creating personal tab
You can edit any tab online and save it as your Personal.

You can edit, replace or remove any tab part or add personal notes – all changes will be seen only by you.

Personal tabs can be accessed anytime from any device, even offline.
Learn more »
Give kudos to tab author, rate the tab!
1 2 3 4 5
comments
print report bad tab
guest
You may want to rate the tab now too:
select rating
Wanna post a correction for this tab? Suggest correction