Oops, an error
Loading. Please wait.

Cheap Talk bass

version 2
version 2

Whole song

Interactive

892 views 1 this week
1 commentread comment
1 2 3 4 5
2 more votes to show rating
add to favorites
×
Save as Personal and add changes to this tab that will be seen only by you. Learn more ›
×
You can save this tab as Personal to edit and correct it or add notes. All changes will be seen only by you. Learn more »
launch autoscroll
font size
0
reset
guitar tuner
edit
Autoscroll
slow
fast
+/-
esc
set tempo
stop
DEATH FROM ABOVE 1979
CHEAP TALK
TUNING DOWN 1 STEP D G C F
TAB BY SRED4

INTRO
There's some harmonic/feedback thing here I can't figure out so just repeat this 8x
-----------|
-----------|
-0---------|
-5---------|

VERSE 1 x4
---------------------=----------5--------7-7-7-7-7-7-7-7-|
---------------------------------------------------------|
---------------------------------------------------------|
-10/5-7-7-7-7-7-7-5-7---10/5-7-7--57-7-7-----------------|

--------------------------------5--------7-7-7-7-9-9-9-9-|
---------------------------------------------------------|
---------------------------------------------------------|
-10/5-7-7-7-7-7-7-5-7---10/5-7-7--57-7-7-----------------|

but on fourth end with
----------------------------|
----------------------------|
-------------0-5------------|
-10/5-7-7-5-3----0-0-10/----|

CHORUS x4
-------------------------------------------11-14--------------------|
---9-12=-------------------13-16---9-12--12---------11-14----9-10---|
-10-------11-14----11-14-14------10---------------12-------10-----7-|
--------12-------12-------------------------------------------------|

VERSE 2 x3
--------------------------------------------------------|
--------------------------------------------------------|
-------------------------------------0-5----------------|
-10/5-7-7-7-7-7-7-5-7---10/5-7-7-5-3-----0-0-10/--------|

--------------------------------5--------7-7-7-7-9-9-9-9-|
---------------------------------------------------------|
---------------------------------------------------------|
-10/5-7-7-7-7-7-7-5-7---10/5-7-7--57-7-7-----------------|

And then do this

--------------------------------5--------7-7-7-7-9-9-9-9-|
---------------------------------------------------------|
---------------------------------------------------------|
-10/5-7-7-7-7-7-7-5-7---10/5-7-7--57-7-7-----------------|

--------------------------------------------------------|
--------------------------------------------------------|
-------------------------------------------------0-5----|
-10/5-7-7-7-7-7-7-5-7---10/5-7-7-5-3------0-0-10/-------|

CHORUS x5 (same as first chorus)

BRIDGE
First 2 times
------6-7-7--9-11-11--------------------------------------|
---------------------7-9-9---------7-9-9------------------|
---------------------------9-10-10-------5-7-7--9-10-10---|
--7-7---------------------------------------------------5-|
This 4 times then end end on A
------6-7-7--9-11-11--14-16-16--------------------------------|
---------------------------------------7-9-9------------------|
-------------------------------9-10-10-------5-7-7--9-10-10---|
--7-7-------------------------------------------------------5-|

            
            
Suggest correction
Creating personal tab
Creating personal tab
You can edit any tab online and save it as your Personal.

You can edit, replace or remove any tab part or add personal notes – all changes will be seen only by you.

Personal tabs can be accessed anytime from any device, even offline.
Learn more »
Give kudos to tab author, rate the tab!
1 2 3 4 5
comments
print report bad tab
1 comment total.
0 reply
Mr. Brawl 104 Oct 29, 2014 12:51 AM

Clearly wrong. Another one that's just not right. More effort than the first one, but all the notes are still clearly wrong and positionings are awkward.

guest
You may want to rate the tab now too:
select rating
Wanna post a correction for this tab? Suggest correction