Oops, an error
Loading. Please wait.

Dead Womb bass

version 2
version 2

Whole song

Interactive

774 views 6 this week
no commentswrite comment
1 2 3 4 5
2 more votes to show rating
add to favorites
×
Save as Personal and add changes to this tab that will be seen only by you. Learn more ›
×
You can save this tab as Personal to edit and correct it or add notes. All changes will be seen only by you. Learn more »
launch autoscroll
font size
0
reset
guitar tuner
edit
Autoscroll
slow
fast
+/-
esc
set tempo
stop
Author
Difficulty
Ok so here's the tab for DFA1979's awesome performance of Dead Womb, (the one with the 
views on youtube).

|-----------------------------------------------|
|------7--9-10~---5--7-8~---3--5-6~---0-3-0~----|
|---0~------------------------------------------|
|-----------------------------------------------|

|-----------------------------7-------9-8-7-----|
|------7--9-10~---5--7-8~---5----5-5------------|
|---0~------------------------------------------|
|-----------------------------------------------|


And there's the intro. you can just look at the other Dead Womb tab to figure out the 
Give me some feedback on what you think of it, just comment and rate please.

            
            
Suggest correction
Creating personal tab
Creating personal tab
You can edit any tab online and save it as your Personal.

You can edit, replace or remove any tab part or add personal notes – all changes will be seen only by you.

Personal tabs can be accessed anytime from any device, even offline.
Learn more »
Give kudos to tab author, rate the tab!
1 2 3 4 5
comments
print report bad tab
guest
You may want to rate the tab now too:
select rating
Wanna post a correction for this tab? Suggest correction