Oops, an error
Loading. Please wait.

Going Steady bass

version 1
version 1

Whole song

Interactive

16,114 views 15 this week
4 commentsread comments
1 2 3 4 5
x 5
add to favorites
×
Save as Personal and add changes to this tab that will be seen only by you. Learn more ›
×
You can save this tab as Personal to edit and correct it or add notes. All changes will be seen only by you. Learn more »
launch autoscroll
font size
0
reset
guitar tuner
edit
Autoscroll
slow
fast
+/-
esc
set tempo
stop
Author
Difficulty
GOING STEADY
I don’t know if this one is right or not
also its not my tab i stolez it from someone but thought it was gewd
E standard.
intro
G]--------------------------------------------------------|x3
D]5-5-------------------------3-3-------------------------|
A]----3---1-1-1-1-1-1-1-1-1-1-----3-3---------------------|
E]------3-----------------------------3-3-3-3-3-3-3-3-3-3-|

G]-------------------------------------------------------|
D]5-5------------------------3-3-------------------------|
A]----3---1-1-1-1-3h4-3--3-3-----3-3---------------------|
E]------3----------------------------3-3-3-3-3-3-3-3-3-3-|

first verse
G]---------------------------------------------------|
D]--------------------3-3----------------------------|
A]1-1-1-1-1-1-1-1-1-1-----3-3---------------------3-3|
E]----------------------------3-3-3-3-3-3-3-3-3-3----|

G]------------------------------------------------|
D]--------------------3-3-------------------------|
A]1-1-1-1-1-1-1-1-1-1-----3-3---------------------|
E]----------------------------3-3-3-3-3-3-3-3-3-3/|

Course pt.1
G]-------5-4---------7-3---------5-2---------3-0|
D]----------------------------------------------|
A]------------------------0-0-0-----------------|
E]3-3-3-------6-6-6-------------------4-4-4-----|

Course pt.2
G]-------12-10---------14-10---------12-10---------10-7|
D]-----------------------------------------------------|
A]----------------------------0-0-0--------------------|
E]3-3-3---------6-6-6-----------------------4-4-4------|

Course pt.3
G]-------5-4---------7-3---------5-2----------3-0|
D]-----------------------------------------------|
A]------------1-2-1-------0-1-0------------------|
E]3-4-3--------------------------------4-5-4-----|

Course pt.4
G]-------12-10---------14-10---------12-10---------10-7|
D]-----------------------------------------------------|
A]--------------1-2-1---------0-1-0--------------------|
E]3-4-3-------------------------------------4-5-4------|

outro
G]0-0-0-0-0-0-0-0-----------------1-1-1-1-1-1-1-1----------------|
D]----------------3-3-3-3-3-3-3-3--------------------------------|
A]------------------------------------------------3-3-3-3-3-3-3-3|
E]---------------------------------------------------------------|


            
            
Suggest correction
Creating personal tab
Creating personal tab
You can edit any tab online and save it as your Personal.

You can edit, replace or remove any tab part or add personal notes – all changes will be seen only by you.

Personal tabs can be accessed anytime from any device, even offline.
Learn more »
comments
print report bad tab
4 comments total. Showing first comments.
-2 reply
Mezzia 10 Sep 03, 2008 04:29 PM

chorus is right but its like...dododo....do do.....do do, do do

+2 reply
bassoreo 10 Dec 18, 2008 01:24 PM

i think on the outro the 1s on the G string should be on the D but other than that 5 stars man this tab is amazing

0 reply
Fuzat 215 Sep 26, 2013 05:52 AM

outro
G]0-0-0-0-0-0-0-0------------------------------------------------|
D]----------------3-3-3-3-3-3-3-3-1-1-1-1-1-1-1-1----------------|
A]------------------------------------------------3-3-3-3-3-3-3-3|
E]---------------------------------------------------------------|

guest
You may want to rate the tab now too:
select rating
Wanna post a correction for this tab? Suggest correction