Oops, an error
Loading. Please wait.

My Love Is Shared bass

version 2
version 2

Whole song

Interactive

1,170 views 6 this week
1 commentread comment
1 2 3 4 5
2 more votes to show rating
add to favorites
×
Save as Personal and add changes to this tab that will be seen only by you. Learn more ›
×
You can save this tab as Personal to edit and correct it or add notes. All changes will be seen only by you. Learn more »
launch autoscroll
font size
0
reset
guitar tuner
edit
Autoscroll
slow
fast
+/-
esc
set tempo
stop
Author
Difficulty
-------------------------------------------------------------------------------
			     My Love Is Shared - Death From Above 1979
-------------------------------------------------------------------------------

Tabbed By : BSSMSTR
e-mail: super_lukassen@hotmail.com

Tuning: Standard (EADG)

An easy song, but really fast... It took me almost half a day to learn to play with the 
pace as the bassist play it...

Intro/Verse
G|------------------------------------------------------|
D|-----------------9-9---------------9-9---7-7----------|
A|---7-7---10-10---------7-7---5-5---------------10-10--|
E|------------------------------------------------------|

G|------------------------------------------------------|
D|---------------9-9-----------------9-9---9-9----------|
A|---3-3---7-7---------10-10---3-3---------------10-10--|
E|------------------------------------------------------|

G|------------------------------------------------------|
D|-----------------9-9---12-12---------9-9---7-7--------|
A|---7-7---10-10-----------------5-5---------------10-10|
E|------------------------------------------------------|

G|------------------------------------------------------|
D|----------------9-9-----------------------7-7---------|
A|---3-3----7-7---------10-10---3-3---3-3---------10-10-|
E|------------------------------------------------------|

Chorus
G|-----------------------------|
D|-----------------------------|
A|---7x22---5x22---------------|
E|-----------------5x22---7x12-|

End of Chorus/Outro
G|------------------------------------------------------|
D|-----------------9-9-----------------------7-8-7------|
A|---7-7---10-10---------10-10---5-5---3-3-----------10-|
E|------------------------------------------------------|

Hope you will enjoy it!!! For corrections or other stuff, just send me an e-mail!!! Thanks...

| /  slide up
| \  slide down
| h  hammer-on
| p  pull-off
| ~  vibrato
| +  harmonic
| x  Mute note
===============================================================================

            
            
Suggest correction
Creating personal tab
Creating personal tab
You can edit any tab online and save it as your Personal.

You can edit, replace or remove any tab part or add personal notes – all changes will be seen only by you.

Personal tabs can be accessed anytime from any device, even offline.
Learn more »
Give kudos to tab author, rate the tab!
1 2 3 4 5
comments
print report bad tab
1 comment total.
0 reply
May21980 66 Jan 29, 2017 06:25 PM

Intro/Verse
G|------------------------------------------------------|
D|-----------------9-9---------------9-9---7-7----------|
A|---7-7---10-10---------7-7---5-5---------------10-10--|
E|------------------------------------------------------|

G|------------------------------------------------------|
D|---------------9-9-----------------9-9---9-9----------|
A|---------7-7---------10-10---------------------10-10--|
E|----8-8----------------------8-8----------------------|

G|------------------------------------------------------|
D|-----------------9-9---12-12---------9-9---7-7--------|
A|---7-7---10-10-----------------5-5---------------10-10|
E|------------------------------------------------------|

G|------------------------------------------------------|
D|----------------9-9-----------------------7-7---------|
A|---3-3----7-7---------10-10---------------------10-10-|
E|-----------------------------8-8----8-8---------------|

I find it easier like this, great tab regardless

guest
You may want to rate the tab now too:
select rating
Wanna post a correction for this tab? Suggest correction