Oops, an error
Loading. Please wait.

Right On Frankenstein bass

version 1
version 1

Whole song

Interactive

1,783 views 15 this week
4 commentsread comments
1 2 3 4 5
3 more votes to show rating
add to favorites
×
Save as Personal and add changes to this tab that will be seen only by you. Learn more ›
×
You can save this tab as Personal to edit and correct it or add notes. All changes will be seen only by you. Learn more »
launch autoscroll
font size
0
reset
guitar tuner
edit
Autoscroll
slow
fast
+/-
esc
set tempo
stop
-----------------------------------------------------------------------------
                    Right On, Frankenstein!  - Death From Above 1979
-----------------------------------------------------------------------------

Tabbed By : TheBassMachine


Tuning: D Standard (DGCF)


Hello! This is my first try at tabbing, but I'm very confident that this is all
correct. Any questions or additions, feel free to email me. Please rate and be nice!

Thanks to Dethdisko for the last line correction!

Intro

F|---------------------------------------------------------------------------|
C|-0/12-12-12-12-12-12-12-12-12-12-12-12-12-12-0-0---------------------------|
G|---------------------------------------------------------------------------|
D|---------------------------------------------------------------------------|

F|---------------------------------------------------------------------------|
C|-12-12-12-12-12-12-12-12-12-12-12-12-12-12-0-0-----------------------------|
G|---------------------------------------------------------------------------|
D|---------------------------------------------------------------------------|

F|---------------------------------------------------------------------------|
C|-12-12-12-12-12-12-0-0-12-12-12-12-12-12-0-0-12-12-0-0-12-12-0-0-12-12-0---|
G|---------------------------------------------------------------------------|
D|---------------------------------------------------------------------------|

F|-10--9-----------------------------------10--9-------------------------------------|
C|-------10--10-10-10-10-10-10-10-10-10-10-------8--8-8-8-8-8-8----------------------|
G|--------------------------------------------------------------8h10-10-10-10-10-10--|
D|-----------------------------------------------------------------------------------|

Verse 1

F|-----------------------------------------------------------------------------------|
C|-12-12-12-12-12-12-12-12-12-12-12-12-12-12-0-0-------------------------------------|
G|-----------------------------------------------------------------------------------|
D|-----------------------------------------------------------------------------------|

F|-----------------------------------------------------------------------------------|
C|-12-12-12-12-12-12-12-12-12-12-12-12-12-12-0-0-------------------------------------|
G|-----------------------------------------------------------------------------------|
D|-----------------------------------------------------------------------------------|

F|-----------------------------------------------------------------------------------|
C|-12-12-12-12-12-12-0-0-12-12-12-12-12-12-0-0-12-12-0-0-12-12-0-0-12-12-0-----------|
G|-----------------------------------------------------------------------------------|
D|-----------------------------------------------------------------------------------|

F|-10--9-----------------------------------10--9-------------------------------------|
C|-------10--10-10-10-10-10-10-10-10-10-10-------8--8-8-8-8-8-8----------------------|
G|--------------------------------------------------------------8h10-10-10-10-10-10--|
D|-----------------------------------------------------------------------------------|

F|-----------------------------------------------------------------------------------|
C|-12-12-12-12-12-12-12-12-12-12-12-12-12-12-0-0-------------------------------------|
G|-----------------------------------------------------------------------------------|
D|-----------------------------------------------------------------------------------|

F|-----------------------------------------------------------------------------------|
C|-12-12-12-12-12-12-12-12-12-12-12-12-12-12-0-0-------------------------------------|
G|-----------------------------------------------------------------------------------|
D|-----------------------------------------------------------------------------------|

F|-----------------------------------------------------------------------------------|
C|-12-12-12-12-12-12-0-0-12-12-12-12-12-12-0-0-12-12-0-0-12-12-0-0-12-12-0-----------|
G|-----------------------------------------------------------------------------------|
D|-----------------------------------------------------------------------------------|

F|-10--9-----------------------------------10--9-------------------------------------|
C|-------10--10-10-10-10-10-10-10-10-10-10-------8--8-8-8-8-8-8----------------------|
G|--------------------------------------------------------------8h10-10-10-10-10-10--|
D|-----------------------------------------------------------------------------------|

F|-----------------------------------------------------------------------------------|
C|-0--0-12-0-0-0-12-0-0-0-12-0-0-0-12-0-0-0-12-0-0-0-12-0-0-0-12-0-0-0-12------------|
G|-----------------------------------------------------------------------------------|
D|-----------------------------------------------------------------------------------|

Chorus

F|-----------------------------------------------------------------------------------|
C|----------------------------------------7--7-7-7-7-7-7-----------------------------|
G|-10--10-10-10-10-10-10--8--8-8-8-8-8-8---------------------------------------------|
D|--------------------------------------------------------8--8-8-8-8-8-8-------------|

F|-----------------------------------------------------------10-9-7------------------|
C|-----------------------------------7-7-8-7--7-7-7-7-7-7-----------10-9-7-----------|
G|-10--10-10-10-10-10-10--8--8-10-10----------------------7--------------------------|
D|-----------------------------------------------------------------------------------|

F|-----------------------------------------------------------------------------------|
C|----------------------------------------7--7-7-7-7-7-7-----------------------------|
G|-10--10-10-10-10-10-10--8--8-8-8-8-8-8---------------------------------------------|
D|--------------------------------------------------------8--8-8-8-8-8-8-------------|

F|-----------------------------------------------------------10-9-7------------------|
C|-----------------------------------7-7-8-7--7-7-7-7-7-7-----------10-9-7-----------|
G|-10--10-10-10-10-10-10--8--8-10-10----------------------7--------------------------|
D|-----------------------------------------------------------------------------------|

F|---10-9-7------------|
C|----------10-9-7-----|
G|-7-------------------| x 3
D|---------------------|

F|---------------------|
C|-0-------pick scrape-|
G|---------------------|
D|---------------------|

Verse 2

F|-----------------------------------------------------------------------------------|
C|-12-12-12-12-12-12-12-12-12-12-12-12-12-12-0-0-------------------------------------|
G|-----------------------------------------------------------------------------------|
D|-----------------------------------------------------------------------------------|

F|-----------------------------------------------------------------------------------|
C|-12-12-12-12-12-12-12-12-12-12-12-12-12-12-0-0-------------------------------------|
G|-----------------------------------------------------------------------------------|
D|-----------------------------------------------------------------------------------|

F|-----------------------------------------------------------------------------------|
C|-12-12-12-12-12-12-0-0-12-12-12-12-12-12-0-0-12-12-0-0-12-12-0-0-12-12-0-----------|
G|-----------------------------------------------------------------------------------|
D|-----------------------------------------------------------------------------------|

F|-10--9-----------------------------------10--9-------------------------------------|
C|-------10--10-10-10-10-10-10-10-10-10-10-------8--8-8-8-8-8-8----------------------|
G|--------------------------------------------------------------8h10-10-10-10-10-10--|
D|-----------------------------------------------------------------------------------|

F|-11---------------13---------------16--------------21------------------------------|
C|-----0-0-0-0-0-0------0-0-0-0-0-0-----0-0-0-0-0-0------0-0-0-0-0-0-----------------|
G|-----------------------------------------------------------------------------------|
D|-----------------------------------------------------------------------------------|

F|-11---------------13---------------16--------------14------------------------------|
C|-----0-0-0-0-0-0------0-0-0-0-0-0-----0-0-0-0-0-0------0-0-------------------------|
G|-----------------------------------------------------------------------------------|
D|-----------------------------------------------------------------------------------|

F|-10--9-----------------------------------10--9-------------------------------------|
C|-------10--10-10-10-10-10-10-10-10-10-10-------8--8-8-8-8-8-8----------------------|
G|--------------------------------------------------------------8h10-10-10-10-10-10--|
D|-----------------------------------------------------------------------------------|

F|-----------------------------------------------------------------------------------|
C|-0--0-12-0-0-0-12-0-0-0-12-0-0-0-12-0-0-0-12-0-0-0-12-0-0-0-12-0-0-0-12------------|
G|-----------------------------------------------------------------------------------|
D|-----------------------------------------------------------------------------------|

Chorus - Repeat

Outro

F|------11-11-11-11-----13-13-13----14\\\\-----------|
C|-\\0---------------0-----------0-------------------|
G|---------------------------------------------------| x 2
D|---------------------------------------------------|

F|--0---16-16-16-16---0--18-18-18--0--19\\\\---------|
C|---------------------------------------------------|
G|---------------------------------------------------|
D|---------------------------------------------------|

F|--0---16-16-16-16---0--18-18-18--0--19h21-21-21----|
C|---------------------------------------------------|
G|---------------------------------------------------|
D|---------------------------------------------------|

F|------11-11-11-11-----13-13-13----14\\\\-----------|
C|-\\0---------------0-----------0-------------------|
G|---------------------------------------------------| x 2
D|---------------------------------------------------|

F|--0---16-16-16-16---0--18-18-18--0--19\\\\---------|
C|---------------------------------------------------|
G|---------------------------------------------------|
D|---------------------------------------------------|

F|--0---16-16-16-16---0--18-18-18--0--19h21-21-21----|
C|---------------------------------------------------|
G|---------------------------------------------------|
D|---------------------------------------------------|

F|------------------------------------------------------|
C|--17------17--15------15--14------14--13------13--12--|
G|------------------------------------------------------|
D|------15----------13----------12----------11----------|


| /  slide up
| \  slide down
| h  hammer-on
| p  pull-off
| ~  vibrato
| +  harmonic
| x  Mute note
=============================================================================

            
            
Suggest correction
Creating personal tab
Creating personal tab
You can edit any tab online and save it as your Personal.

You can edit, replace or remove any tab part or add personal notes – all changes will be seen only by you.

Personal tabs can be accessed anytime from any device, even offline.
Learn more »
Give kudos to tab author, rate the tab!
1 2 3 4 5
comments
print report bad tab
4 comments total. Showing first comments.
0 reply
Dethdisko 1,764 Sep 22, 2014 06:57 AM

Can't rate it, man, cause I have my Guitar Pro version uploaded here, but I'd give you 5 stars for sure. My only correction would be the final couple of notes, it goes like this:

F|------------------------------------------------------|
C|--17------17--15------15--14------14--13------13--12--|
G|------------------------------------------------------|
D|------15----------13----------12----------11----------|

0 reply
TheBassMachine 33 Sep 22, 2014 11:21 AM

Thanks for pointing that out, I changed the final line

0 reply
TheBassMachine 33 Sep 22, 2014 11:22 AM

Thanks man, I changed the last line

guest
You may want to rate the tab now too:
select rating
Wanna post a correction for this tab? Suggest correction