Oops, an error
Loading. Please wait.

Cant Let Go bass

version 1
version 1

Whole song

Interactive

3,148 views 3 this week
3 commentsread comments
1 2 3 4 5
x 3
add to favorites
×
Save as Personal and add changes to this tab that will be seen only by you. Learn more ›
×
You can save this tab as Personal to edit and correct it or add notes. All changes will be seen only by you. Learn more »
launch autoscroll
font size
0
reset
guitar tuner
backing track
0:00
0:00
edit
Autoscroll
slow
fast
+/-
esc
set tempo
stop
Author
Difficulty
[code]
Song: Can't Let Go
Artist: Death of the Cool
Album: Can't Let Go (Single)

	This is a really cool song from the game Rock Band, performed by the indie band "Death
the Cool". This is their only single to date, and there isn't a lot of info out there on
If you feel like doing some research, visit their site at 
Anyway, I couldn't find a tab for this anywhere, so I decided to conjure up a Bass tab
it. Sorry guitar players, I can't help you with a tab, maybe someone will make one in 
future...

Tuning: Eb, Ab, Db, Gb (can be played standard tuning; I prefer to drop it a half step)

The song is written in like 11:8 or something weird like that, so I'll just do my best
seperate phrases. It's best to listen for the rhythm yourself to get the correct feel,
despite the odd time signature, the rhythm is pretty straightforward. The bridge may 
one or two things that I missed, but overall, I feel that this tab is ~95-98% correct.


[Main Riff]:

Gb|--------|--------|--------|----|
Db|555-5---|--------|--------|----|
Ab|--------|555-5---|444-4---|----|
Eb|--------|--------|--------|4444|

Gb|--------|--------|--------|----|
Db|--------|--------|--------|3333|
Ab|--------|222-2---|111-1---|----|
Eb|333-3---|--------|--------|----|

[Repeat Main Riff through intro and verses (x5)]


["Heavy" Riff]:

Gb|--------|--------|--------|--------|
Db|--------|--------|--------|--------|
Ab|--------|--------|--------|--------|
Eb|3-3-3-3-|345-345-|3-3-3-3-|345-3452| (x4)

["Cooldown" Riff]:

Gb|--------|--------|--------|----|
Db|555-5---|--------|--------|----|
Ab|--------|555-5---|444-4---|----|
Eb|--------|--------|--------|4444|

Gb|--------|--------|--------|----|
Db|--------|--------|--------|3333|
Ab|--------|22------|11------|----|
Eb|33333---|--------|--------|----|


[Main Riff]:

Gb|--------|--------|--------|----|
Db|555-5---|--------|--------|----|
Ab|--------|555-5---|444-4---|----|
Eb|--------|--------|--------|4444|

Gb|--------|--------|--------|----|
Db|--------|--------|--------|3333|
Ab|--------|222-2---|111-1---|----|
Eb|333-3---|--------|--------|----|

[Repeat through verse (x2)]

["Heavy" Riff]:

Gb|--------|--------|--------|--------|
Db|--------|--------|--------|--------|
Ab|--------|--------|--------|--------|
Eb|3-3-3-3-|345-345-|3-3-3-3-|345-3452| (x4)

[Bridge]:

Gb|--------|--------|--------|--------|
Db|--------|--------|--------|--------|
Ab|777-7---|555-5---|--------|--------|
Eb|--------|--------|555-4~~~|-567----|

Gb|--------|--------|--------|--------|
Db|--------|--------|--------|--------|
Ab|777-7---|555-5---|--------|--------|
Eb|--------|--------|555-4~~~|3~~~~~~~|

Gb|--------|--------|--------|--------|
Db|--------|--------|--------|--------|
Ab|777-7---|555-5---|--------|--------|
Eb|--------|--------|555-4~~~|-567----|

Gb|--------|--------|--------|--------|
Db|--------|--------|--------|--------|
Ab|777-7---|555-5---|--------|--------|
Eb|--------|--------|555-4~~~|3~~~5678|

Gb|--------|--------|--------|--------|
Db|--------|--------|--------|--------|
Ab|999-9---|777-7---|--------|--------|
Eb|--------|--------|777-6~~~|-789----|

Gb|--------|--------|--------|--------|
Db|--------|--------|--------|--------|
Ab|999-9---|777-7---|--------|--------|
Eb|--------|--------|777-6~~~|5~~~~~~4|

Gb|--------|--------|--------|--------|
Db|--------|--------|--------|--------|
Ab|999-9---|777-7---|--------|--------|
Eb|--------|--------|1234----|--------|


[Main Riff]:

Gb|--------|--------|--------|----|
Db|555-5---|--------|--------|----|
Ab|--------|555-5---|444-4---|----|
Eb|--------|--------|--------|4444|

Gb|--------|--------|--------|----|
Db|--------|--------|--------|3333|
Ab|--------|222-2---|111-1---|----|
Eb|333-3---|--------|--------|----|

[Play Main Riff into and throughout Lead solo (x3)]


["Heavy" Riff]:

Gb|--------|--------|--------|--------|
Db|--------|--------|--------|--------|
Ab|--------|--------|--------|--------|
Eb|3-3-3-3-|345-345-|3-3-3-3-|345-3452| (x12*) *Goes until end of song

Tab by: TeKnoboi
TantricSax@gmail.com
[/code]

            
            
Suggest correction
Creating personal tab
Creating personal tab
You can edit any tab online and save it as your Personal.

You can edit, replace or remove any tab part or add personal notes – all changes will be seen only by you.

Personal tabs can be accessed anytime from any device, even offline.
Learn more »
Give kudos to tab author, rate the tab!
1 2 3 4 5
comments
print report bad tab
3 comments total.
+1 reply
Gonzo6SGrocks 196 Jun 12, 2008 10:01 AM

This is a very good bass tab. I should try to make a tab of this with the guitar and bass part you made for it, if you don't mind.

I only found little things wrong with this tab, which I'm sure you didn't see on accident:

On measure 4 of the bridge, you put the "567" on the wrong string. It's actually on the Ab string.

Gb|--------|--------|--------|--------|
Db|--------|--------|--------|--------|
Ab|777-7---|555-5---|--------|-567----|
Eb|--------|--------|555-4~~~|--------|

And then the same mistake when it changes keys during the bridge:

Gb|--------|--------|--------|--------|
Db|--------|--------|--------|--------|
Ab|999-9---|777-7---|--------|-789----|
Eb|--------|--------|777-6~~~|--------|

0 reply
TeKnoboi 31 Jun 12, 2008 09:12 PM

Thanks a lot for the support! This is my first tab, so I tried to make it as clear and accurate as possible. You're right about the error in the bridge. I can't believe I missed something that simple. You're more than welcome to make a guitar tab for this song if you wish. I'm not competent enough on guitar or with the guitar part to do so myself.

+1 reply
Shor-T Zero 70 Jun 24, 2008 05:04 PM

Awesome stuff, great tab for your first time. I hope someone can tab the guitar part out.

Actually in Rock Band, there's a loading screen that talks about the time signature, and it is 11/4 through the whole song. Subdivide like this:
| denotes a measure
1-2-3|1-2-3|1-2-3|1-2|
and I think the chorus is 9/4 or something.

If you give it a few listens, you'll pick up on the small hints. Good job again

guest
You may want to rate the tab now too:
select rating
Wanna post a correction for this tab? Suggest correction