Oops, an error
Loading. Please wait.

Night Electric Night tab

version 1
version 1

Whole song

Interactive

4,590 views 1 this week
7 commentsread comments
1 2 3 4 5
1 last vote to show rating
add to favorites
×
Save as Personal and add changes to this tab that will be seen only by you. Learn more ›
×
You can save this tab as Personal to edit and correct it or add notes. All changes will be seen only by you. Learn more »
launch autoscroll
font size
0
reset
how to read this tab
guitar tuner
edit
Autoscroll
slow
fast
+/-
esc
set tempo
stop
=========================================================

                "Night Electric Night"
                    
                      Deathstars

                 Night Electric Night

=========================================================


Tabbed by: John Moores  
Updated 11/22/2015

Tuning: Drop C (CGCFAD)

Legend: * = Palm Mute
        ~ = Let ring


Intro

0:26
|--------------------------------------------------------|
|--------------------------------------------------------|
|--------------------------------------------------------|
|---------------6-------6---------3-1----0---------------|   x4
|---------------6-------6---------3-1----0---------------|
|----0--0-0-0---6--0-0--6-0-0-0-0-3-1-0--0---------------|
     *  * * *      * *    * * * *     *

|--------------------------------------------------------|
|------------6~------------5-------------4---------------|
|------------5~------------4-------------3---------------|
|----3~~-----3~-------2----2------1------1---------------|
|----3~~--------------2-----------1----------------------|
|----3~~--------------2-----------1----------------------|



|--------------------------------------------------------|
|--------------------------------------------------------|
|--------------------------------------------------------|
|---------------6-------6---------3-1----0---------------|   x2
|---------------6-------6---------3-1----0---------------|
|----0--0-0-0---6--0-0--6-0-0-0-0-3-1-0--0---------------|
     *  * * *      * *    * * * *     *



Verse 1

0:50
|--------------------------------------------------------|
|--------------------------------------------------------|
|--------------------------------------------------------|
|--------------------------------------------------------|
|--------------------------------------------------------|
|--------------------------------------------------------|

1:13
|--------------------------------------------------------|
|--------------------------------------------------------|
|--------------------------------------------------------|
|---------------6-------6---------3-1----0---------------|   x4
|---------------6-------6---------3-1----0---------------|
|----0--0-0-0---6--0-0--6-0-0-0-0-3-1-0--0---------------|
     *  * * *      * *    * * * *     *


Verse 2

1:25
|--------------------------------------------------------|
|--------------------------------------------------------|
|--------------------------------------------------------|
|--------------------------------------------------------|
|--------------------------------------------------------|
|--------------------------------------------------------|


1:48
|--------------------------------------------------------|
|------------6~------------5~-----------4~---------------|
|------------5~------------4~-----------3~---------------|
|----3~~-----3~-------2----2~-----1-----1~---------------|
|----3~~--------------2-----------1----------------------|
|----3~~--------------2-----------1----------------------|

|--------------------------------------------------------|
|--------------------------------------------------------|
|--------------------------------------------------------|
|---------------6-------6---------3-1----0---------------|   x2
|---------------6-------6---------3-1----0---------------|
|----0--0-0-0---6--0-0--6-0-0-0-0-3-1-0--0---------------|
     *  * * *      * *    * * * *     *

|--------------------------------------------------------|
|------------6-------------5-------------4---------------|
|------------5-------------4-------------3---------------|
|----3~~-----3--------2----2------1------1-------7\\-----|
|----3~~--------------2-----------1--------------5\\-----|
|----3~~--------------2-----------1----------------------|



Chorus

2:10
|--------------------------------------------------------|
|--------------------------------------------------------|
|--7------7------7--7------7------10--5------5------5----|
|--7------7------7--7------7------10--5------5------5----|
|--5--5-5-5--5-5-5--5--5-5-5--8-8-8---3--3-3-3--3-3-3----|
|--------------------------------------------------------|
      * *    * *       * *    * *        * *    * *

|--------------------------------------------------------|
|--------------------------------------------------------|
|--------------------------------------------------------|
|--5------7------7---------------------------------------|
|--5------7------7---------------------------------------|
|--5--5-5-7--7-7-7---------------------------------------|
      * *    * * 


2:22
|--------------------------------------------------------|
|--------------------------------------------------------|
|--------------------------------------------------------|
|---------------6-------6---------3-1----0---------------|   x4
|---------------6-------6---------3-1----0---------------|
|----0--0-0-0---6--0-0--6-0-0-0-0-3-1-0--0---------------|
     *  * * *      * *    * * * *     *



Verse 3

2:33
|--------------------------------------------------------|
|--------------------------------------------------------|
|--------------------------------------------------------|
|--------------------------------------------------------|
|--------------------------------------------------------|
|--------------------------------------------------------|


2:56
|--------------------------------------------------------|
|------------6-------------5-------------4---------------|
|------------5-------------4-------------3---------------|
|----3~~-----3--------2----2------1------1---------------|
|----3~~--------------2-----------1----------------------|
|----3~~--------------2-----------1----------------------|



3:03
|--------------------------------------------------------|
|--------------------------------------------------------|
|--------------------------------------------------------|
|---------------6-------6---------3-1----0---------------|   x2
|---------------6-------6---------3-1----0---------------|
|----0--0-0-0---6--0-0--6-0-0-0-0-3-1-0--0---------------|
     *  * * *      * *    * * * *     *

|--------------------------------------------------------|
|------------6-------------5-------------4---------------|
|------------5-------------4-------------3---------------|
|----3~~-----3--------2----2------1------1------7\\------|
|----3~~--------------2-----------1-------------5\\------|
|----3~~--------------2-----------1----------------------|



Chorus

3:17                                                       _
|--------------------------------------------------------|  |
|--------------------------------------------------------|  |
|--7------7------7--7------7------10--5------5------5----|  |
|--7------7------7--7------7------10--5------5------5----|  |
|--5--5-5-5--5-5-5--5--5-5-5--8-8-8---3--3-3-3--3-3-3----|  |
|--------------------------------------------------------|  |
      * *    * *       * *    * *        * *    * *         |
                                                            |-- x2
|--------------------------------------------------------|  |
|--------------------------------------------------------|  |
|--------------------------------------------------------|  |
|--5------7------7---------------------------------------|  |
|--5------7------7---------------------------------------|  |
|--5--5-5-7--7-7-7---------------------------------------|  |
      * *    * *                                           _|


3:42
|--------------------------------------------------------|
|--------------------------------------------------------|
|--------------------------------------------------------|
|---------------6-------6---------3-1----0---------------|   x2
|---------------6-------6---------3-1----0---------------|
|----0--0-0-0---6--0-0--6-0-0-0-0-3-1-0--0---------------|
     *  * * *      * *    * * * *     *
|--------------------------------------------------------|
|--------------------------------------------------------|
|--------------------------------------------------------|
|---------------6-------6---------3-0----0---------------|
|---------------6-------6---------3-0----0---------------|
|----0--0-0-0---6--0-0--6-0-0-0-0-3-0-0--0---------------|
     *  * * *      * *    * * * *     *

3:50
|--------------------------------------------------------|
|--------------------------------------------------------|
|--------------------------------------------------------|
|---------------6-------6---------12-12--10--12--12\\----|
|---------------6-------6---------12-12--10--12--12\\----|
|----0--0-0-0---6--0-0--6--0-0----12-12--10--12--12\\----|
     *  * * *      * *     * *


            
            
Suggest correction
Creating personal tab
Creating personal tab
You can edit any tab online and save it as your Personal.

You can edit, replace or remove any tab part or add personal notes – all changes will be seen only by you.

Personal tabs can be accessed anytime from any device, even offline.
Learn more »
Give kudos to tab author, rate the tab!
1 2 3 4 5
comments
print report bad tab
7 comments total. Showing first comments.
0 reply
thinlizzymyhero 31 Apr 15, 2009 01:09 PM

i think the main riff ends with 3rd fret the 2nd fret then open just sounds better to me, but great tab

0 reply
Petzakecske 1,310 Jan 03, 2013 04:57 AM, edited on November 26 2013, 04:10 am

*edit*

0 reply
Petzakecske 1,310 Jan 03, 2013 04:59 AM

woah, that looks messy, let me try again:

Main Riff:

|-----------------------------------|
|-----------------------------------|
|-----------------------------------|
|----------6-----6---------3-1---0--|
|----------6-----6---------3-1---0--|
|--0-0-0-0-6-0-0-6-0-0-0-0-3-1-0-0--|
* * * * * * * * * * *


Chorus:
|--------------------------------------------------------|
|--------------------------------------------------------|
|--7------7------7--7------7------10--5------5------5----|
|--7------7------7--7------7------10--5------5------5----|
|--5--5-5-5--5-5-5--5--5-5-5--8-8-8---3--3-3-3--3-3-3----|
|--------------------------------------------------------|
* * * * * * * * * * * *


|--------------------------------------------------------|
|--------------------------------------------------------|
|--------------------------------------------------------|
|--5------7------7---------------------------------------|
|--5------7------7---------------------------------------|
|--5--5-5-7--7-7-7---------------------------------------|
* * * *

guest
You may want to rate the tab now too:
select rating
Wanna post a correction for this tab? Suggest correction