Oops, an error
Loading. Please wait.

Rhythm Of The Night bass

by DeBarge
58 views 1 this week
no commentswrite comment
1 2 3 4 5
2 more votes to show rating
add to favorites
×
Save as Personal and add changes to this tab that will be seen only by you. Learn more ›
×
You can save this tab as Personal to edit and correct it or add notes. All changes will be seen only by you. Learn more »
launch autoscroll
font size
0
reset
guitar tuner
edit
Autoscroll
slow
fast
+/-
esc
set tempo
stop
4/4

[Intro]
G|--------------------------------|--------------------------------|
D|0-----------0---0-----------0---|------------0---0---------------|
A|--------------------------------|------------------------0-------|
E|--------------------------------|--------------------------------|

G|--------------------------------|--------------------------------|
D|0-----------0---0-----------0---|------------0---0---------------|
A|--------------------------------|------------------------0---3---|
E|--------------------------------|--------------------------------|

G|--------------------------------|--------------------------------|
D|0-----------0---0-----------0---|------------0---0---------------|
A|--------------------------------|------------------------0-------|
E|--------------------------------|--------------------------------|
 
G|--------------------------------|--------------------------------|
D|0-----------0---0-----------0---|------------0---0---------------|
A|--------------------------------|------------------------0---3---|
E|--------------------------------|--------------------------------|
 
[Verse] 
G|--------------------------------|--------------------------------|
D|0-------------0-0---------------|--------------------------------|
A|--------------------------------|0-------------0-2---------------|
E|--------------------------------|--------------------------------|

G|--------------------------------|--------------------------------|
D|0-------------0-0---------------|--------------------------------|
A|--------------------------------|3-------------3-3-------0-------|
E|--------------------------------|--------------------------------|

G|--------------------------------|--------------------------------|
D|0-------------0-0---------------|--------------------------------|
A|--------------------------------|3-------------3-2---------------|
E|--------------------------------|--------------------------------|

G|--------------------------------|--------------------------------|
D|0-------------0-0---------------|--------------------------------|
A|--------------------------------|3-------------3-0---0-0-2-2-3-3-|
E|--------------------------------|--------------------------------|

[Pre-Chorus]
G|--------------------------------|--------------------------------|
D|--------------------------------|--------------------------------|
A|0-------------0-0---------------|2-------------2-2-------0-------|
E|--------------------------------|--------------------------------|
 
G|--------------------------------|--------------------------------|
D|--------------------------------|--------------------------------|
A|--------------------------------|0-------------------------------|
E|3-------------------------------|--------------------------------|

G|--------------------------------|--------------------------------|
D|2-------------2-2---------------|--------------------------------|
A|--------------------------------|2-------------2-2-------0-------|
E|--------------------------------|--------------------------------|

G|--------------------------------|--------------------------------|
D|--------------------------------|--------------------------------|
A|--------------------------------|0-------------------------------|
E|3-------------3-3---------------|--------------------------------|
 
[Chorus]
G|------------------------0---0---|2-------------2-2-------0-------|
D|0-----------0---2---------------|----------------------------4---|
A|--------------------------------|--------------------------------|
E|--------------------------------|--------------------------------|

G|--------------------------------|--------------------------------|
D|--------------------------------|--------------------------------|
A|2-------------2-----------------|0-------------0-0---------------|
E|----------------0---0---3---3---|------------------------0-------|

G|------------------------0---0---|2-------------2-2-------0-------|
D|0-----------0---2---------------|----------------------------4---|
A|--------------------------------|--------------------------------|
E|--------------------------------|--------------------------------|

G|----------------------------0-2-|0-------------0-----------------|
D|--------------2-----------------|--------------------------------|
A|--------------------------------|----------------0---------------|
E|3---------------3---------------|--------------------------------|

[Instrumental]
G|--------------------------------|--------------------------------|
D|0-----------0---0-----------0---|------------0---0---------------|
A|--------------------------------|------------------------0-------|
E|--------------------------------|--------------------------------|

G|--------------------------------|--------------------------------|
D|0-----------0---0-----------0---|------------0---0---------------|
A|--------------------------------|------------------------0---3---|
E|--------------------------------|--------------------------------|

G|--------------------------------|--------------------------------|
D|0-----------0---0-----------0---|------------0---0---------------|
A|--------------------------------|------------------------0-------|
E|--------------------------------|--------------------------------|

G|--------------------------------|--------------------------------|
D|0-----------0---0-----------0---|------------0---0---------------|
A|--------------------------------|------------------------0---3---|
E|--------------------------------|--------------------------------|
 
[Verse] 
G|--------------------------------|--------------------------------|
D|0-------------0-0---------------|--------------------------------|
A|--------------------------------|0-------------0-2---------------|
E|--------------------------------|--------------------------------|

G|--------------------------------|--------------------------------|
D|0-------------0-0---------------|--------------------------------|
A|--------------------------------|3-------------3-3-------0-------|
E|--------------------------------|--------------------------------|

G|--------------------------------|--------------------------------|
D|0-------------0-0---------------|--------------------------------|
A|--------------------------------|3-------------3-2---------------|
E|--------------------------------|--------------------------------|

G|--------------------------------|--------------------------------|
D|0-------------0-0---------------|--------------------------------|
A|--------------------------------|3-------------3-0---0-0-2-2-3-3-|
E|--------------------------------|--------------------------------|

[Pre-Chorus]
G|--------------------------------|--------------------------------|
D|--------------------------------|--------------------------------|
A|0-------------0-0---------------|2-------------2-2-------0-------|
E|--------------------------------|--------------------------------|
 
G|--------------------------------|--------------------------------|
D|--------------------------------|--------------------------------|
A|--------------------------------|0-------------------------------|
E|3-------------------------------|--------------------------------|
 
G|--------------------------------|--------------------------------|
D|2-------------2-2---------------|--------------------------------|
A|--------------------------------|2-------------2-2-------0-------|
E|--------------------------------|--------------------------------|

G|--------------------------------|--------------------------------|
D|--------------------------------|--------------------------------|
A|--------------------------------|0-------------------------------|
E|3-------------3-3---------------|--------------------------------|
 
[Chorus]
G|------------------------0---0---|2-------------2-2-------0-------|
D|0-----------0---2---------------|----------------------------4---|
A|--------------------------------|--------------------------------|
E|--------------------------------|--------------------------------|

G|--------------------------------|--------------------------------|
D|--------------------------------|--------------------------------|
A|2-------------2-----------------|0-------------0-0---------------|
E|----------------0---0---3---3---|------------------------0-------|

G|------------------------0---0---|2-------------2-2-------0-------|
D|0-----------0---2---------------|----------------------------4---|
A|--------------------------------|--------------------------------|
E|--------------------------------|--------------------------------|

G|----------------------------0-2-|0-------------0-----------------|
D|--------------2-----------------|--------------------------------|
A|--------------------------------|----------------0---------------|
E|3---------------3---------------|--------------------------------|
 
[Solo]
G|--------------------------------|--------------------------------|
D|--------------------------------|--------------------------------|
A|2-----------2---2---------------|2-----------2---2---------------|
E|--------------------------------|--------------------------------|
                                                                 
G|--------------------------------|--------------------------------|
D|--------------------------------|--------------------------------|
A|0-----------0---0---------------|0-----------0-1-0-----------0---|
E|--------------3-----------------|------------------0-----0-------|
                                                               
G|--------------------------------|--------------------------------|
D|--------------------------------|--------------------------------|
A|2-----------2---2---------------|2-2---------2---2---------------|
E|--------------------------------|--------------------------------|
                                                                    
G|------------2-------------------|--------------------------------|
D|----------------2---------------|--------------------------------|
A|0-0-----------------------------|0-----------0---0---------------|
E|--------------------------------|--------------------------------|

[Pre-Chorus]
G|--------------------------------|--------------------------------|
D|--------------------------------|--------------------------------|
A|0-------------0-0---------------|2-------------2-2-------0-------|
E|--------------------------------|--------------------------------|
 
G|--------------------------------|--------------------------------|
D|--------------------------------|--------------------------------|
A|--------------------------------|0-------------------------------|
E|3-------------------------------|--------------------------------|
 
G|--------------------------------|--------------------------------|
D|2-------------2-2---------------|--------------------------------|
A|--------------------------------|2-------------2-2-------0-------|
E|--------------------------------|--------------------------------|
 
G|--------------------------------|--------------------------------|
D|--------------------------------|--------------------------------|
A|--------------------------------|0-------------------------------|
E|3-------------3-3---------------|--------------------------------|

[Chorus 2]
G|--------------------------------|--------------------------------|
D|2-------------------------------|--------------------------------|
A|--------------------------------|--------------------------------|
E|--------------------------------|--------------------------------|
                                                                   
G|--------------------------------|--------------------------------|
D|--------------------------------|--------------------------------|
A|--------------------------------|--------------------------------|
E|--------------------------------|--------------------------------|
                                                                    
G|--------------------------------|--------------------------------|
D|2-------------------------------|--------------------------------|
A|--------------------------------|2-------------------------------|
E|--------------------------------|--------------------------------| 
                                                                    
G|--------------------------------|--------------------------------|
D|2---------------3---------------|--------------------------------|
A|--------------------------------|--------------------------------|
E|--------------------------------|--------------------------------|
 
[Outro]
G|--------------------------------|--------------------------------|
D|--------------------------------|--------------------------------|
A|--------------------------------|2-------------0-2-------0-------|
E|0-------------0-2-------3-------|----------------------------3---|
                                                                    
G|--------------------------------|--------------------------------|
D|--------------------------------|--------------------------------|
A|4-------------4-----------------|2-------------2-2---------------|
E|----------------2-------4-------|--------------------------------|
                                                                    
G|--------------------------------|--------------------------------|
D|--------------------------------|--------------------------------|
A|--------------------------------|2-------------0-2-------0-------|
E|0-------------0-2-------3-------|----------------------------3---|
                                                                     
G|--------------------------------|--------------------------------|
D|--------------------------------|--------------------------------|
A|4-------------4-----------------|2-------------2-2---------------|
E|----------------2-------4-------|--------------------------------|
                                                                    
G|--------------------------------|--------------------------------|
D|--------------------------------|--------------------------------|
A|--------------------------------|2-------------0-2-------0-------|
E|0-------------0-2-------3-------|----------------------------3---|
                                                                    
G|--------------------------------|--------------------------------|
D|--------------------------------|--------------------------------|
A|4-------------4-----------------|2-------------2-2---------------|
E|----------------2-------4-------|--------------------------------|
                                                                     
G|--------------------------------|--------------------------------|
D|--------------------------------|--------------------------------|
A|--------------------------------|2-------------0-2-------0-------|
E|0-------------0-2-------3-------|----------------------------3---|
                                                                     
G|--------------------------------|--------------------------------|
D|--------------------------------|--------------------------------|
A|4-------------4-----------------|2-------------2-2---------------|
E|----------------2-------4-------|--------------------------------|
                                                                     
G|--------------------------------|--------------------------------|
D|--------------------------------|--------------------------------|
A|--------------------------------|2-------------0-2-------0-------|
E|0-------------0-2-------3-------|----------------------------3---|
                                                                     
G|--------------------------------|--------------------------------|
D|--------------------------------|--------------------------------|
A|4-------------4-----------------|2-------------2-2---------------|
E|----------------2-------4-------|--------------------------------|
                                                                     
G|--------------------------------|--------------------------------|
D|--------------------------------|--------------------------------|
A|--------------------------------|2-------------0-2-------0-------|
E|0-------------0-2-------3-------|----------------------------3---|
                                                                     
G|--------------------------------|--------------------------------|
D|--------------------------------|--------------------------------|
A|4-------------4-----------------|2-------------2-2---------------|
E|----------------2-------4-------|--------------------------------| 
                                                                    
G|--------------------------------|--------------------------------|
D|--------------------------------|--------------------------------|
A|--------------------------------|2-------------0-2-------0-------|
E|0-------------0-2-------3-------|----------------------------3---|
                                                                    
G|--------------------------------|--------------------------------|
D|--------------------------------|--------------------------------|
A|4-------------4-----------------|2-------------2-2---------------|
E|----------------2-------4-------|--------------------------------|

            
            
Suggest correction
Creating personal tab
Creating personal tab
You can edit any tab online and save it as your Personal.

You can edit, replace or remove any tab part or add personal notes – all changes will be seen only by you.

Personal tabs can be accessed anytime from any device, even offline.
Learn more »
Give kudos to tab author, rate the tab!
1 2 3 4 5
comments
print report bad tab
guest
You may want to rate the tab now too:
select rating
Wanna post a correction for this tab? Suggest correction