Oops, an error
Loading. Please wait.

Brazil intro tab

version 2
version 2

Intro

  • Https://youtu.be/SLnA3YUWzhA The tab is from this ... Show more

Whole song

Interactive

2,035 views 33 this week
5 commentsread comments
1 2 3 4 5
x 7
add to favorites
×
Save as Personal and add changes to this tab that will be seen only by you. Learn more ›
×
You can save this tab as Personal to edit and correct it or add notes. All changes will be seen only by you. Learn more »
launch autoscroll
font size
0
reset
how to read this tab
guitar tuner
edit
Autoscroll
slow
fast
+/-
esc
set tempo
stop
Author
Difficulty
intermediate
I got this from watching Delcan McKenna's acoustic music video of Brazil.

[Intro]
e|-------------------------------------------------------------------------------------|
B|------9-------9---------10-------9-----9---------------------------------------------|
G|---9-----9-8-----8-------------------------------------------------------------------|
D|--------------------9/10----10\9----9------------------------------------------------|
A|-------------------------------------------------------------------------------------|
E|-------------------------------------------------------------------------------------|
 

************************************

| /  Slide up
| \  Slide down 

************************************

            
            
Suggest correction
Creating personal tab
Creating personal tab
You can edit any tab online and save it as your Personal.

You can edit, replace or remove any tab part or add personal notes – all changes will be seen only by you.

Personal tabs can be accessed anytime from any device, even offline.
Learn more »
comments
print report bad tab
5 comments total. Showing first comments.
+3 reply
StuWakley 199 Mar 05, 2017 11:48 AM

Intro]
e|-------------------------------------------------------------------------------------|
B|------9-------9---------10-------9-----9---------------------------------------------|
G|---9-----9-8-----8-------------------------------------------------------------------|
D|--------------------9/11----11\9----9------------------------------------------------|
A|-------------------------------------------------------------------------------------|
E|-------------------------------------------------------------------------------------|

-2 reply
irmakrol12 20 Mar 05, 2017 11:51 AM

Hi, thanks for the help. But I'm still sure it's correct. You should check out Declans video of Brazil accoustic and then you can see he does play; 9/10 and 10\9. :)

0 reply
StuWakley 199 Mar 05, 2017 11:54 AM

But the 10 isnt in key. Doesnt even sound right. 11 does

guest
You may want to rate the tab now too:
select rating
Wanna post a correction for this tab? Suggest correction