Oops, an error
Loading. Please wait.

Time chords

223 views 3 this week
no commentswrite comment
1 2 3 4 5
1 last vote to show rating
add to favorites
×
Save as Personal and add changes to this tab that will be seen only by you. Learn more ›
×
You can save this tab as Personal to edit and correct it or add notes. All changes will be seen only by you. Learn more »
launch autoscroll
font size
0
reset
transpose
0
reset
display chords
guitar tuner
edit
Autoscroll
slow
fast
+/-
esc
set tempo
stop
About this tab version
These are the chords/tabs for Dec's song "Time" :)) it's based off the version from his bandcamp album "I've made it further than you (no, not you)". you can listen to an excerpt of it here: https://www.youtube.com/watch?v=UXdycy49pJ8. Was this info helpful? Yes No
Strumming
There is no strumming pattern for this song yet. and get +5 IQ
[Chords used]
E     022100
C#m   x46654
B     x24442
C     x35553

[Intro]
e|--------------------|--------------------|--------------------|-----------|
B|--------------------|--------------------|--------------------|-----------|
G|--2--0-----2--0-----|--2--0-----2--0-----|--2--0-----2--0-----|--2--0-----|
D|--------2--------2--|--------2--------2--|--------2--------2--|--------2--|
A|--------------------|--------------------|--------------------|-----------|
E|--------------------|--------------------|--------------------|-----------|

[main riff]
e|-----------------|--------------------|--------------|-----------------------|
B|-----------------|--------------------|--------------|-----------------------|
G|-----------------|--------------------|--------------|-----------------------| (x2 until lyrics start but it
D|-----------------|--------------------|--------------|--------------------2--| continues through the whole
A|--------------2--|--4--4--2-----------|-----------2--|--4--4--2--------------| song except for the choruses)
E|--0--0--2--4-----|-----------4--2--0--|--0--2--4-----|-----------4--2--0-----|

(guitar 2)
e|--7--7--7--7--7-------------------------------|
B|-----------------7--7--7/9--9--9--9--9--7--5--|
G|----------------------------------------------|
D|----------------------------------------------|
A|----------------------------------------------|
E|----------------------------------------------|   (x2)

[Verse 1]
E                    C#m
I've been waiting on time
    B                E
but time won't be my friend
                       C#m
'cause time aint got a heart
    B                   E
and time won't beat for nothin'
                 C#m        B               E
and I've got the time but I haven't got the time
             C#m      B
to listen to anything else but

[Chorus]
(chorus riff)
e|---------------------|-----------------------|
B|---------------------|-----------------------|
G|---------------------|-----------------------|
D|-----2---------4-----|-----------------------|
A|---------------------|--3-3-3-3-3-3-2-2-2-2--|
E|--0------0--2-----2--|-----------------------| (x2)

(guitar 2)
e|--9--7-----9--7-----|
B|--------9--------9--|
G|--------------------|
D|--------------------|
A|--------------------|
E|--------------------|  (and repeat througout chorus)

and just the chorus chords:

    E
I'm something
    C#m
I'm nothing
    C                          B
and I just worry about getting money
       E        C#m
'cause I'm busy earning
    C                    B
and time is always on my side

[Verse 2]
E                   C#m
what do I want from time?
        B              E
well not that much you see
                   C#m
'cause I don't own time
    B                 E
but time does not own me
                  C#m
and time ain't my friend
    B              E
and time is not my fear
                    C#m         B       E
'cause time is only days and months and years

[Chorus]
   C#m
of regret cause
  C                       B
I didn't make the most of time
  E            C#m
I was too busy earning
  C                        B
I only worry about getting money
     E         C#m
yeah I want, I want that
     C                        B
yeah I just wanna get on that check
      E      C#m
cause I am a leader
     C                B
yeah I (?) instead of me!

[Outro]
E  C#m  B  (x4)
E  C#m  C  B  (x4)

            
            
Suggest correction
Creating personal tab
Creating personal tab
You can edit any tab online and save it as your Personal.

You can edit, replace or remove any tab part or add personal notes – all changes will be seen only by you.

Personal tabs can be accessed anytime from any device, even offline.
Learn more »
Give kudos to tab author, rate the tab!
1 2 3 4 5
comments
print report bad tab
guest
You may want to rate the tab now too:
select rating
Wanna post a correction for this tab? Suggest correction