Oops, an error
Loading. Please wait.

Ride With Me tab

version 2
version 2

Whole song

3,347 views 3 this week
3 commentsread comments
1 2 3 4 5
x 8
add to favorites
×
Save as Personal and add changes to this tab that will be seen only by you. Learn more ›
×
You can save this tab as Personal to edit and correct it or add notes. All changes will be seen only by you. Learn more »
launch autoscroll
font size
0
reset
how to read this tab
guitar tuner
edit
Autoscroll
slow
fast
+/-
esc
set tempo
stop
Author
 My first tab ;) Please rate and comment
For any questions email me at hassan.crane@hotmail.com
Decyfer Down
Crash
Ride With Me

X-Dead Note   \-Slide  **-Palm Mute
Guitar 1- Dist. Drop C
Guitar 2- Clean. Drop C

Intro
Guitar 2
D--------------------------------------------------------------------|
A--------------------------------------------------------------------|
F----------8----------8----------8--5-5------------------------------|x2
C--0--353--8--0--353--8--0--353--8--5-5------------------------------|
G--0--353--6--0--353--6--0--353--6--3-3------------------------------|
C--0--353-----0--353-----0--353---------0-5~-4~----------------------|

Guitar 1
D--------------------------------------------------------------------|
A--------------------------------------------------------------------|
F-------------8----------8----------8--5-5---------------------------|x2
C-00|-0--353--8--0--353--8--0--353--8--5-5---------------------------|
G-00|-0--353--6--0--353--6--0--353--6--3-3---------------------------|
C-00|-0--353-----0--353-----0--353---------0-5~-4~-------------------|

Verse
Guitar 1
D--------------------------------------------------------------------|
A--------------------------------------------------------------------|
F--------------------------------------------------------------------|
C-0-00-00-00-05-55-58XX7---------------------------------------------|
G-0-00-00-00-05-55-58XX7---------------------------------------------|
C-0-00-00-00-05-55-58XX7---------------------------------------------|

Chorus
Guitar 1
D--------------------------------------------------------------------|
A--------------------------------------------------------------------|
F--------------------------------------------------------------------|
C-0000/3333/8888/5555/0000/3333/8888/5555/0000/8888/3333/9999--------|
G-0000/3333/8888/5555/0000/3333/8888/5555/0000/8888/3333/9999--------|
C-0000/3333/8888/5555/0000/3333/8888/5555/0000/8888/3333/9999--------|

D--------------------------------------------------------------------|
A--------------------------------------------------------------------|
F--------------------------------------------------------------------|
C-88888888/1010101010------------------------------------------------|
G-88888888/1010101010------------------------------------------------|
C-88888888/1010101010------------------------------------------------|

Intro- x1
Verse
Chorus
Intro- x1
Bridge
Guitar 1
D--------------------------------------------------------------------|
A--------------------------------------------------------------------|
F--------------------------------------------------------------------|
C--------------3h2p3-------------------3h2p3-------------------------|
G-00-0-0-03-00------3p2p0-00-0-0-03-00------3p2p0--------------------|
C-00-0-0-03-00------------00-0-0-03-00-------------------------------|
  ** * * *  **            ** * * *  **

D--------------------------------------------------------------------|
A--------------------------------------------------------------------|
F--------------------------------------------------------------------|
C-0-10-0-8-5/13-0-10-0-8-5\3-0-10-0-8-5/13-0-10-0-8-5\3-1~~~---------|
G-0-10-0-8-5/13-0-10-0-8-5\3-0-10-0-8-5/13-0-10-0-8-5\3-1~~~---------|
C-0-10-0-8-5/13-0-10-0-8-5\3-0-10-0-8-5/13-0-10-0-8-5\3-1~~~---------|

Chorus- x2
Ending- Intro - x2

            
            
Suggest correction
Creating personal tab
Creating personal tab
You can edit any tab online and save it as your Personal.

You can edit, replace or remove any tab part or add personal notes – all changes will be seen only by you.

Personal tabs can be accessed anytime from any device, even offline.
Learn more »
comments
print report bad tab
3 comments total.
+2 reply
Soccergeek4jc 221 Jul 06, 2010 06:13 AM

Hey this sounds good but you missed a part in the intro...

it goes:

c-0-353-8-0-353-1-0-353-8-55-3-------3-0~
g-0-353-6-0-353-1-0-353-6-33-3-------3-0~
c-0-353---0-353-1-0-353------3-5h6p5-3-0~


Otherwise great tab! Just that little bit...

0 reply
Hd0gg3113 30 Jul 12, 2010 10:46 PM

Well thank you! Alot!

+1 reply
Guitar-Jones 10 Aug 05, 2010 12:28 AM

Nice tab for the most part, and soccergeek4jc's addition was great as well, thanks.

guest
You may want to rate the tab now too:
select rating
Wanna post a correction for this tab? Suggest correction