Oops, an error
Loading. Please wait.

Fulfilled In Warfare tab

890 views 1 this week
no commentswrite comment
1 2 3 4 5
1 last vote to show rating
add to favorites
×
Save as Personal and add changes to this tab that will be seen only by you. Learn more ›
×
You can save this tab as Personal to edit and correct it or add notes. All changes will be seen only by you. Learn more »
launch autoscroll
font size
0
reset
how to read this tab
guitar tuner
edit
Autoscroll
slow
fast
+/-
esc
set tempo
stop
Author
[Riff 1] (both guitars)                                      [Outro 1]
e|-----------------------------------------------------|    |-------------|
B|-----------------------------------------------------|    |-------------|
G|-5555------------------------------------------------|    |-5555--------|
D|------4444-------------------------------------------|(2x)|------4444---|
A|----------------3333-----------4444-3333-------------|    |-------------|
E|-----------2222------2222-3333-----------4444-3333-2-|    |-----------2-|

[Riff 2] (both guitars)
e|-----------------------------------------------------|
B|-4444------------------------------------------------|
G|------2222-------------------------------------------|
D|-----------------------------------------------------|
A|----------------3333-----------4444-3333-------------|
E|-----------2222------2222-3333-----------4444-3333-2-|

[Riff 3] (guitar 1)
e|-----------------------------------------------------|
B|-3333------------------------------------------------|
G|------1111-------------------------------------------|
D|----------------2222-----------3333-2222-------------|
A|-----------1111------1111-2222-----------3333-2222-1-|
E|-----------------------------------------------------|

(guitar 2)
e|-----------------------------------------------------|
B|-3333------------------------------------------------|
G|------1111-------------------------------------------|
D|-----------------------------------------------------|
A|----------------3333-----------4444-3333-------------|
E|-----------2222------2222-3333-----------4444-3333-2-|


[Riff 2] (both guitars)
e|-----------------------------------------------------|
B|-4444------------------------------------------------|
G|------2222-------------------------------------------|
D|-----------------------------------------------------|
A|----------------3333-----------4444-3333-------------|
E|-----------2222------2222-3333-----------4444-3333-2-|

[Outro 1]
e|-------------|
B|-------------|
G|-5555--------|
D|------4444---|
A|-------------|
E|-----------2-|

[Bass solo]

[Riff 4] 
(both guitars )
e|-------------------------|
B|-------------------------|
G|-------------------------|
D|-------------------------|
A|-4-----------4-----------|
E|---3-2-3-2-3---3-2-3-2-3-|
   . . . . . . . . . . . . 

[Riff 5] 
(guitar 1)
e|-------------------------------------------------|
B|-------------------------------------------------|
G|------------------------2222-3333-0000-1111------|
D|-222222222222-4444-5555---------------------3333-|
A|-------------------------------------------------|
E|-------------------------------------------------|

(guitar 2)
e|-------------------------------------------------|
B|-------------------------------------------------|
G|-------------------------------------------------|
D|-------------------------------------------------|
A|-777777777777-6666-5555-2222-3333-0000-1111------|
E|--------------------------------------------3333-|

[Riff 6] 
(guitar 1)
e|-------------------------------------------------|
B|-------------------------------------------------|
G|-------------------------------------------------|
D|-------------------------------------------------|
A|-777777777777-6666-5555-2222-3333-0000-1111------|
E|--------------------------------------------3333-|

(guitar 2)
e|-------------------------------------------------|
B|-------------------------------------------------|
G|------------------------2222-3333-0000-1111------|
D|-222222222222-4444-5555---------------------3333-|
A|-------------------------------------------------|
E|-------------------------------------------------|

[Riff 5] 
(guitar 1)
e|-------------------------------------------------|
B|-------------------------------------------------|
G|------------------------2222-3333-0000-1111------|
D|-222222222222-4444-5555---------------------3333-|
A|-------------------------------------------------|
E|-------------------------------------------------|

(guitar 2)
e|-------------------------------------------------|
B|-------------------------------------------------|
G|-------------------------------------------------|
D|-------------------------------------------------|
A|-777777777777-6666-5555-2222-3333-0000-1111------|
E|--------------------------------------------3333-|

[Riff 6] 
(guitar 1)
e|-------------------------------------------------|
B|-------------------------------------------------|
G|-------------------------------------------------|
D|-------------------------------------------------|
A|-777777777777-6666-5555-2222-3333-0000-1111------|
E|--------------------------------------------3333-|

(guitar 2)
e|-------------------------------------------------|
B|-------------------------------------------------|
G|------------------------2222-3333-0000-1111------|
D|-222222222222-4444-5555---------------------3333-|
A|-------------------------------------------------|
E|-------------------------------------------------|

[Riff 7] 
(both guitars)
e|-----------------------------|
B|-----------------------------|
G|-----------------------------|
D|-----------------------------|
A|-8-7--ah--7-7-6-5--8-7-6--ah-|
E|-6-5--3---5-5-4-3--6-5-4--3--|
   . .      . . . .  . . .

[Riff 8] 
(both guitars)
e|----------------------------------------------------------------|
B|----------------------------------------------------------------|
G|----------------------------------------------------------------|
D|-----------777777777777-----------------------------------------|
A|-----7-7-8-------------------7777-----------6666-----------5555-|
E|-5-5--------------------5555------5555-4444------4444-3333------|
   . . . . . ____________ ____ ____ ____ ____ ____ ____ ____ ____

[Riff 9] (guitar 1)                       [Outro 2]
e|---------------------------------------|---------------------|
B|---------------------------------------|---------------------|
G|---------------------------------------|---------------------|
D|---------------------------------------|------5555------4444-|
A|-------333333333333--------------------|-3333------2222------|
E|-1-1-1--------------1-1-4444-3333-1111-|---------------------|
   . . . ____________ . . ____ ____ ____   ____ ____ ____ ____

(guitar 2)                               [Outro 2]
e|---------------------------------------|---------------------|
B|---------------------------------------|---------------------|
G|---------------------------------------|------4444------3333-|
D|---------------------------------------|-2222------1111------|
A|-------333333333333--------------------|---------------------|
E|-1-1-1--------------1-1-4444-3333-1111-|---------------------|
   . . . ____________ . . ____ ____ ____   ____ ____ ____ ____

[Riff 7] 
(both guitars)
e|-----------------------------|
B|-----------------------------|
G|-----------------------------|
D|-----------------------------|
A|-8-7--ah--7-7-6-5--8-7-6--ah-|
E|-6-5--3---5-5-4-3--6-5-4--3--|
   . .      . . . .  . . .

[Riff 8] 
(both guitars)
e|----------------------------------------------------------------|
B|----------------------------------------------------------------|
G|----------------------------------------------------------------|
D|-----------777777777777-----------------------------------------|
A|-----7-7-8-------------------7777-----------6666-----------5555-|
E|-5-5--------------------5555------5555-4444------4444-3333------|
   . . . . . ____________ ____ ____ ____ ____ ____ ____ ____ ____

[Riff 9] (guitar 1)                       
e|---------------------------------------|
B|---------------------------------------|
G|---------------------------------------|
D|---------------------------------------|
A|-------333333333333--------------------|
E|-1-1-1--------------1-1-4444-3333-1111-|
   . . . ____________ . . ____ ____ ____  

(guitar 2)                               
e|---------------------------------------|
B|---------------------------------------|
G|---------------------------------------|
D|---------------------------------------|
A|-------333333333333--------------------|
E|-1-1-1--------------1-1-4444-3333-1111-|
   . . . ____________ . . ____ ____ ____  

[Riff 10] 
(both guitars)
e|-------------------------------------|
B|-------------------------------------|
G|-------------------------------------|
D|-----------------------------------6-|
A|-3-3--5-4--4-4-6--ah-5-5-7-4--8-7----|
E|-1-1--3-2--2-2-4--3--3-3-5-4--6-5----|
   . .  . .  . . .     . . . .  . .

[Riff 11] 
(both guitars)
e|--------------------------------------------------------------|
B|--------------------------------------------------------------|
G|--------------------------------------------------------------|
D|-222222222222-----------0-2-444444444444-333333-000000-222222-|
A|--------------------------------------------------------------|
E|--------------000-0-1-2---------------------------------------|
   ____________ ... . . . . . ____________ ______ ______ ______
 
e|----------------------------------|
B|----------------------------------|
G|----------------------------------|
D|-----------0-2-555555555555-3333--|
A|----------------------------------|
E|-000-0-1-2------------------------|
   ... . . . . . ____________ ____

[Outro 3] 
(both guitars)
e|-------------|
B|-------------|
G|-------------|
D|-8-5---------|
A|-----6-5-7-5-|
E|-------------|
   . . . . . .

[Riff 11] 
(both guitars)
e|--------------------------------------------------------------|
B|--------------------------------------------------------------|
G|--------------------------------------------------------------|
D|-222222222222-----------0-2-444444444444-333333-000000-222222-|
A|--------------------------------------------------------------|
E|--------------000-0-1-2---------------------------------------|
   ____________ ... . . . . . ____________ ______ ______ ______
 
e|----------------------------------|
B|----------------------------------|
G|----------------------------------|
D|-----------0-2-555555555555-3333--|
A|----------------------------------|
E|-000-0-1-2------------------------|
   ... . . . . . ____________ ____

[Outro 3]  (x2)
(both guitars)
e|-------------|
B|-------------|
G|-------------|
D|-8-5---------|
A|-----6-5-7-5-|
E|-------------|
   . . . . . .

[Riff 10] 
(both guitars)
e|-------------------------------------|
B|-------------------------------------|
G|-------------------------------------|
D|-----------------------------------6-|
A|-3-3--5-4--4-4-6--ah-5-5-7-4--8-7----|
E|-1-1--3-2--2-2-4--3--3-3-5-4--6-5----|
   . .  . .  . . .     . . . .  . .

[Riff 11] 
(both guitars)
e|--------------------------------------------------------------|
B|--------------------------------------------------------------|
G|--------------------------------------------------------------|
D|-222222222222-----------0-2-444444444444-333333-000000-222222-|
A|--------------------------------------------------------------|
E|--------------000-0-1-2---------------------------------------|
   ____________ ... . . . . . ____________ ______ ______ ______
 
e|----------------------------------|
B|----------------------------------|
G|----------------------------------|
D|-----------0-2-555555555555-3333--|
A|----------------------------------|
E|-000-0-1-2------------------------|
   ... . . . . . ____________ ____

[Outro 3] 
(both guitars)
e|-------------|
B|-------------|
G|-------------|
D|-8-5---------|
A|-----6-5-7-5-|
E|-------------|
   . . . . . .

[Riff 11] 
(both guitars)
e|--------------------------------------------------------------|
B|--------------------------------------------------------------|
G|--------------------------------------------------------------|
D|-222222222222-----------0-2-444444444444-333333-000000-222222-|
A|--------------------------------------------------------------|
E|--------------000-0-1-2---------------------------------------|
   ____________ ... . . . . . ____________ ______ ______ ______
 
e|----------------------------------|
B|----------------------------------|
G|----------------------------------|
D|-----------0-2-555555555555-3333--|
A|----------------------------------|
E|-000-0-1-2------------------------|
   ... . . . . . ____________ ____

[Outro 3] (x2)
(both guitars)
e|-------------|
B|-------------|
G|-------------|
D|-8-5---------|
A|-----6-5-7-5-|
E|-------------|
   . . . . . .

[Riff 10] (x2)
(both guitars)
e|-------------------------------------|
B|-------------------------------------|
G|-------------------------------------|
D|-----------------------------------6-|
A|-3-3--5-4--4-4-6--ah-5-5-7-4--8-7----|
E|-1-1--3-2--2-2-4--3--3-3-5-4--6-5----|
   . .  . .  . . .     . . . .  . .

[Riff 12] 
(both guitars)
e|-------------------------------------|
B|-------------------------------------|
G|-------------------------------------|
D|------------------ah---------------6-|
A|-3-3--5-4--4-4-6--3--5-5-7-4--8-7----|
E|-1-1--3-2--2-2-4-----3-3-5-4--6-5----|
  . .  . .  . . .     . . . .  . .

[Riff 13] 
(both guitars) 
(the 11 are ones not elevens)
e|------------------------------------|
B|------------------------------------|
G|------------------------------------|
D|------------------------------------|
A|----------------------------888-999-|
E|-0000000000011111111111-777---------|
   ______________________ ... ... ...
 
Repeat
Riff 10 

[Riff 13] 
(both guitars) 
(the 11 are ones not elevens)
e|------------------------------------|
B|------------------------------------|
G|------------------------------------|
D|------------------------------------|
A|----------------------------888-999-|
E|-0000000000011111111111-777---------|
   ______________________ ... ... ...

[Riff 10]
(both guitars)
e|-------------------------------------|
B|-------------------------------------|
G|-------------------------------------|
D|-----------------------------------6-|
A|-3-3--5-4--4-4-6--ah-5-5-7-4--8-7----|
E|-1-1--3-2--2-2-4--3--3-3-5-4--6-5----|
   . .  . .  . . .     . . . .  . .

[Riff 5] 
(guitar 1)
e|-------------------------------------------------|
B|-------------------------------------------------|
G|------------------------2222-3333-0000-1111------|
D|-222222222222-4444-5555---------------------3333-|
A|-------------------------------------------------|
E|-------------------------------------------------|

(guitar 2)
e|-------------------------------------------------|
B|-------------------------------------------------|
G|-------------------------------------------------|
D|-------------------------------------------------|
A|-777777777777-6666-5555-2222-3333-0000-1111------|
E|--------------------------------------------3333-|

[Riff 6] 
(guitar 1)
e|-------------------------------------------------|
B|-------------------------------------------------|
G|-------------------------------------------------|
D|-------------------------------------------------|
A|-777777777777-6666-5555-2222-3333-0000-1111------|
E|--------------------------------------------3333-|

(guitar 2)
e|-------------------------------------------------|
B|-------------------------------------------------|
G|------------------------2222-3333-0000-1111------|
D|-222222222222-4444-5555---------------------3333-|
A|-------------------------------------------------|
E|-------------------------------------------------|

[Riff 5] 
(guitar 1)
e|-------------------------------------------------|
B|-------------------------------------------------|
G|------------------------2222-3333-0000-1111------|
D|-222222222222-4444-5555---------------------3333-|
A|-------------------------------------------------|
E|-------------------------------------------------|

(guitar 2)
e|-------------------------------------------------|
B|-------------------------------------------------|
G|-------------------------------------------------|
D|-------------------------------------------------|
A|-777777777777-6666-5555-2222-3333-0000-1111------|
E|--------------------------------------------3333-|

[Riff 6] 
(guitar 1)
e|-------------------------------------------------|
B|-------------------------------------------------|
G|-------------------------------------------------|
D|-------------------------------------------------|
A|-777777777777-6666-5555-2222-3333-0000-1111------|
E|--------------------------------------------3333-|

(guitar 2)
e|-------------------------------------------------|
B|-------------------------------------------------|
G|------------------------2222-3333-0000-1111------|
D|-222222222222-4444-5555---------------------3333-|
A|-------------------------------------------------|
E|-------------------------------------------------|

[Riff 1] (both guitars)                                      [Outro 1]
e|-----------------------------------------------------|    |-------------|
B|-----------------------------------------------------|    |-------------|
G|-5555------------------------------------------------|    |-5555--------|
D|------4444-------------------------------------------|(2x)|------4444---|
A|----------------3333-----------4444-3333-------------|    |-------------|
E|-----------2222------2222-3333-----------4444-3333-2-|    |-----------2-|

[Riff 2] (both guitars)
e|-----------------------------------------------------|
B|-4444------------------------------------------------|
G|------2222-------------------------------------------|
D|-----------------------------------------------------|
A|----------------3333-----------4444-3333-------------|
E|-----------2222------2222-3333-----------4444-3333-2-|

[Riff 11] 
(both guitars)
e|--------------------------------------------------------------|
B|--------------------------------------------------------------|
G|--------------------------------------------------------------|
D|-222222222222-----------0-2-444444444444-333333-000000-222222-|
A|--------------------------------------------------------------|
E|--------------000-0-1-2---------------------------------------|
   ____________ ... . . . . . ____________ ______ ______ ______
 
e|----------------------------------|
B|----------------------------------|
G|----------------------------------|
D|-----------0-2-555555555555-3333--|
A|----------------------------------|
E|-000-0-1-2------------------------|
   ... . . . . . ____________ ____

[Outro 3]
(both guitars)
e|-------------|
B|-------------|
G|-------------|
D|-8-5---------|
A|-----6-5-7-5-|
E|-------------|
   . . . . . .

[Riff 11] 
(both guitars)
e|--------------------------------------------------------------|
B|--------------------------------------------------------------|
G|--------------------------------------------------------------|
D|-222222222222-----------0-2-444444444444-333333-000000-222222-|
A|--------------------------------------------------------------|
E|--------------000-0-1-2---------------------------------------|
   ____________ ... . . . . . ____________ ______ ______ ______
 
e|----------------------------------|
B|----------------------------------|
G|----------------------------------|
D|-----------0-2-555555555555-3333--|
A|----------------------------------|
E|-000-0-1-2------------------------|
   ... . . . . . ____________ ____

[Outro 3] (x2)
(both guitars)
e|-------------|
B|-------------|
G|-------------|
D|-8-5---------|
A|-----6-5-7-5-|
E|-------------|
   . . . . . .

[Riff 14] 
(both guitars)
e|---------------------------------------------------------------------|
B|---------------------------------------------------------------------|
G|---------------------------------------------------------------------|
D|-----7"-----8"-------------------------------------------------------|
A|-------------------7-------444-333333333333------------------3h4-----|
E|-555----555----555-----555-------------------2-2-333-2-2-222-----555-|
   ...    ...    ...     ... ... ____________  . . ... . . ...     ...

[Riff 8] 
(both guitars)
e|----------------------------------------------------------------|
B|----------------------------------------------------------------|
G|----------------------------------------------------------------|
D|-----------777777777777-----------------------------------------|
A|-----7-7-8-------------------7777-----------6666-----------5555-|
E|-5-5--------------------5555------5555-4444------4444-3333------|
   . . . . . ____________ ____ ____ ____ ____ ____ ____ ____ ____

[Riff 9] (guitar 1)                       
e|---------------------------------------|
B|---------------------------------------|
G|---------------------------------------|
D|---------------------------------------|
A|-------333333333333--------------------|
E|-1-1-1--------------1-1-4444-3333-1111-|
   . . . ____________ . . ____ ____ ____  

(guitar 2)                               
e|---------------------------------------|
B|---------------------------------------|
G|---------------------------------------|
D|---------------------------------------|
A|-------333333333333--------------------|
E|-1-1-1--------------1-1-4444-3333-1111-|
   . . . ____________ . . ____ ____ ____  

[Riff 14] 
(both guitars)
e|---------------------------------------------------------------------|
B|---------------------------------------------------------------------|
G|---------------------------------------------------------------------|
D|-----7"-----8"-------------------------------------------------------|
A|-------------------7-------444-333333333333------------------3h4-----|
E|-555----555----555-----555-------------------2-2-333-2-2-222-----555-|
   ...    ...    ...     ... ... ____________  . . ... . . ...     ...

[Riff 15] 
(guitar 1)
e|----------------------------------------------------------------|
B|----------------------------------------------------------------|
G|----------------------------------------------------------------|
D|-----------777777777777-----------------------------------------|
A|-----7-7-8-------------------7777-----------6666-----------5555-|
E|-5-5--------------------5555------5555-4444------4444-3333------|
   . . . . . ____________ ____ ____ ____ ____ ____ ____ ____ ____

(guitar 2)
e|----------------------------------------------------------------|
B|----------------------------------------------------------------|
G|-----------777777777777-----------------------------------------|
D|-----7-7-8-------------------7777-----------6666-----------5555-|
A|-5-5--------------------5555------5555-4444------4444-3333------|
E|----------------------------------------------------------------|
   . . . . . ____________ ____ ____ ____ ____ ____ ____ ____ ____

[Riff 9] (guitar 1)                       
e|---------------------------------------|
B|---------------------------------------|
G|---------------------------------------|
D|---------------------------------------|
A|-------333333333333--------------------|
E|-1-1-1--------------1-1-4444-3333-1111-|
   . . . ____________ . . ____ ____ ____  

(guitar 2)                               
e|---------------------------------------|
B|---------------------------------------|
G|---------------------------------------|
D|---------------------------------------|
A|-------333333333333--------------------|
E|-1-1-1--------------1-1-4444-3333-1111-|
   . . . ____________ . . ____ ____ ____  

[Riff 14] (x2)
(both guitars)
e|---------------------------------------------------------------------|
B|---------------------------------------------------------------------|
G|---------------------------------------------------------------------|
D|-----7"-----8"-------------------------------------------------------|
A|-------------------7-------444-333333333333------------------3h4-----|
E|-555----555----555-----555-------------------2-2-333-2-2-222-----555-|
   ...    ...    ...     ... ... ____________  . . ... . . ...     ...

[Riff 16]
e|-----|
B|-----|
G|-----|
D|-----|
A|-2-2-|
E|-0-0-|



************************************

| .  Staccato
| h  Hammer-on

************************************

            
            
Suggest correction
Creating personal tab
Creating personal tab
You can edit any tab online and save it as your Personal.

You can edit, replace or remove any tab part or add personal notes – all changes will be seen only by you.

Personal tabs can be accessed anytime from any device, even offline.
Learn more »
Give kudos to tab author, rate the tab!
1 2 3 4 5
comments
print report bad tab
guest
You may want to rate the tab now too:
select rating
Wanna post a correction for this tab? Suggest correction