Oops, an error
Loading. Please wait.
We have Chord Pro version of Black Night.
It's the closest thing you can get to the original song and it has interactive parts. Check out the tab »
×

Black Night tab

130,554 views 39 this week
9 commentsread comments
1 2 3 4 5
x 41
add to favorites
×
Save as Personal and add changes to this tab that will be seen only by you. Learn more ›
×
You can save this tab as Personal to edit and correct it or add notes. All changes will be seen only by you. Learn more »
launch autoscroll
font size
0
reset
how to read this tab
guitar tuner
backing track
0:00
0:00
edit
Autoscroll
slow
fast
+/-
esc
set tempo
stop
Gtr I (E A D G B E)

Medium Shuffle Q=134 (8=s8)
4/4


(bass arranged for guitar - alternate picking)
e|-------------------------|-------------------------|
B|-------------------------|-------------------------|
G|-------------------------|-------------------------|
D|-------------------------|-------------------------|
A|-7-7-7-7-7-7-5-5-5-5-5-5-|-------------------------|
E|-------------------------|-7-7-7-7-7-7-3-3-3-3-3-3-|

Gtr I
   Q   E  E Q   E  E   Q   E  E E  E Q     E  E Q   H         E  E Q   H
e|-------------------|-------------------|------------------|------------------|
B|-------------------|-------------------|------------------|------------------|
G|-------------------|-------------------|------------------|------------------|
D|-----5-------------|-----5----7--5-----|------------------|-5----------------|
A|-7------7-5------5-|-7------7------7---|-5--7-------------|----7-------------|
E|--------------7----|-------------------|------------------|------------------|


   Q   E  E Q   E  E   Q   E  E E  E Q     E  E Q   H         E  E Q   H
e|-------------------|-------------------|------------------|------------------|
B|-------------------|-------------------|------------------|------------------|
G|-------------------|-------------------|------------------|------------------|
D|-----5-------------|-----5----7--5-----|------------------|-5----------------|
A|-7------7-5------5-|-7------7------7---|-5--7-------------|----7-------------|
E|--------------7----|-------------------|------------------|------------------|


   E E E E E E E E   E E E E E E E E   E E E E E E E E
e|-----------------|-----------------|-----------------|----|
B|-----------------|-----------------|-----------------|----|
G|-----------------|-----------------|-----------------|----|
D|-----------------|-----------------|-----------------|----|
A|-5-7-------------|-5-7-------------|-5-7-------------|----|
E|-----0-0-0-0-0-0-|-----0-0-0-0-0-0-|-----0-0-0-0-0-0-|----|


   E E E E E E E E   E E E E E E E E   E E E E E E E E
e|-----------------|-----------------|-----------------|----|
B|-----------------|-----------------|-----------------|----|
G|-----------------|-----------------|-----------------|----|
D|-----------------|-----------------|-----------------|----|
A|-5-7-------------|-5-7-------------|-5-7-------------|----|
E|-----0-0-0-0-0-0-|-----0-0-0-0-0-0-|-----0-0-0-0-0-0-|----|


   E  E  E E E E  E  E  E E E E E E  E  E  E  E  E E E E E E
e|------------------------------------------------------------|
B|------------------------------------------------------------|
G|------------------------------------------------------------|
D|-----------------------------------------------7p5-7-5-7-5--|
A|-5h=7--5h7-5----5-----5-7s9-9s7-5--7--5---------------------|
E|-------------7-----7---------------------7--5---------------|


   E E E E E E  E
e|----------------|
B|----------------|
G|----------------|
D|-----5-----5--3-|
A|-5h7---5--------|
E|-------3-3------|


                          ~~                                   ~~
     E  E  E  E  E  E  E  E   E      E  E  E      E  E  E      E   E
e|-------------------------------------12-----------12--------12--12----|
B|----------------------------------12-----------12----15b17--12--12----|
G|--------12----12-14-12-12--14b16--------14b16-------------------------|
D|-----12----14---------------------------------------------------------|
A|-/14------------------------------------------------------------------|
E|----------------------------------------------------------------------|


                                         \1/  \1/  \1/  \1/  \1/  \1/  \1/
    E E  E  E  E E E  E E E E   E E E E  E    E    E    E    E    E    E
e|-------------------------------------------------------------------------|
B|-------------------------------------------------------------------------|
G|-------------------------------------------------------------------------|
D|-------7--5------5------5-3-------3--------------------------------------|
A|-------------6-7--------------4-5---2--2----2----2----2----2----2----2---|
E|-/5-5---------------3-3--------------------------------------------------|


            ~~                    ~~
     E  E   E     E      E E   E  E     E      E   E   E    E  E   E  E  E  E  E  E  E
e|-------------------------0-----15----14b15--14--15--14\-----20--17-18-19-20-18-17-15-|
B|---------------13b15r=13-0-----15-----------15-----------/9-----17-------------------|
G|-/16-12--12--------------------------------------------------------------------------|
D|----------------------------14-------------------------------------------------------|
A|-------------------------------------------------------------------------------------|
E|-------------------------------------------------------------------------------------|


                                                                           ~~
    E  E  E  E  E  E  E  E  E  E  E  E  E  E  E   E  E  E  E  E  E   E  E  E     E E
e|-15-16-15-----------------------------------------------------------------------------|
B|----------17p15----15-17--------------------------------------------------------------|
G|----------------16-------16-15-14-12-14-15-14--12-------------14-----12-14------------|
D|--------------------------------------------------14-12----14-----14----------/5-0----|
A|--------------------------------------------------------14----------------------------|
E|--------------------------------------------------------------------------------------|


        \1/   \1/   \1/
                          ~~                                                   ~~
    E   E     E     E     E      E  E  E       E  E  E  E  E  E E  E  E  E  E  E   E
e|--------------------------------------------------------------------------------------|
B|-17--17----17----17----17-------------------------------------------------------------|
G|------------------------------15-18-15b16---14-12-14-14-12---------14----12-12--12\---|
D|----------------------------------------------------------------14----15--------------|
A|--------------------------------------------------------------------------------------|
E|------------------------------------------------------------0-0-----------------------|


     E  E  E  E  E  E  E  E  E  E  E  E  E  E  E  E  E  E  E  E  E  E  E  E  E
e|-----------------------------------------------------------------------------|
B|-----------------------------------------------------------------------------|
G|-/12-------------------------------------------------------------------------|
D|-----14-14-12-14-14-12----14-12----14-12----14----12-14-12-------------------|
A|-----------------------14-------14-------14----14----------14-12-14-12-------|
E|-----------------------------------------------------------------------14-12-|


Duration Legend

************************************

W - whole; H - half; Q - quarter; E - 8th; S - 16th; T - 32nd; X - 64th; a - acciaccatura
+ - note tied to previous; . - note dotted; .. - note double dotted
Uncapitalized letters represent notes that are staccato (1/2 duration)
Irregular groupings are notated above the duration line
Duration letters will always appear directly above the note/fret number it represents the
duration for.  Duration letters with no fret number below them represent rests.  Multi-
bar rests are notated in the form Wxn, where n is the number of bars to rest for.  Low
melody durations appear below the staff

Misc Legend

************************************
 |  - bar
||  - double bar
||o - repeat start
o|| - repeat end
*|  - double bar (ending)
 :  - bar (freetime)
 $  - Segno
 &  - Coda
Tempo markers -  = BPM(8/16=s8/s16), where s8 = swing 8ths, s16 = swing 16ths

************************************

| p  Pull-off
| b  Bend
| /  Slide up
| \  Slide down
| s  Slap
| h  hammer-on
| r  bend release (if no number after the r, then release immediately)

************************************

            
            
Suggest correction
Creating personal tab
Creating personal tab
You can edit any tab online and save it as your Personal.

You can edit, replace or remove any tab part or add personal notes – all changes will be seen only by you.

Personal tabs can be accessed anytime from any device, even offline.
Learn more »
comments
print report bad tab
9 comments total. Showing first comments.
0 reply
Squirrel1993 506 Jul 06, 2007 03:48 PM

u forgot the first part in the intro:
|---------------------------------------------------------|
|---------------------------------------------------------|
|---------------------------------------------------------|
|---------------------------------------------------------|
|--777777--555555-----------------------------------------|
|------------------555555--3333---------------------------|

0 reply
stef123 40 Jul 16, 2007 01:29 PM

good tab

+1 reply
miniature 10 Oct 16, 2007 09:51 AM

Hi, Good tab, but I didn't understand how to play this: (where is the breaks supposed to be here?)

|---------------|
|---------------|
|---------------|
|--7p5-7-5-7-5--|
|---------------|
|---------------|

|----------------|
|----------------|
|----------------|
|-----5-----5--3-|
|-5h7---5--------|
|-------3-3------|

Thanks,
Yoav.

guest
Wanna post a correction for this tab? Suggest correction