Oops, an error
Loading. Please wait.

Cut Runs Deep bass

version 1
version 1

Whole song

Interactive

396 views 1 this week
no commentswrite comment
1 2 3 4 5
3 more votes to show rating
add to favorites
×
Save as Personal and add changes to this tab that will be seen only by you. Learn more ›
×
You can save this tab as Personal to edit and correct it or add notes. All changes will be seen only by you. Learn more »
launch autoscroll
font size
0
reset
guitar tuner
edit
Autoscroll
slow
fast
+/-
esc
set tempo
stop
Band: Deep Purple
Song: Cut Runs Deep
Album: Slaves and Masters





     W                   W                   W                 
G||-------------------|-------------------|-------------------|
D||-------------------|-------------------|-------------------|
A||-------------------|-------------------|-------------------|
E||-------------------|-------------------|-------------------|


  W                   W                   W                   W                 
-------------------|-------------------|-------------------|-------------------|
-------------------|-------------------|-------------------|-------------------|
-------------------|-------------------|-------------------|-------------------|
-------------------|-------------------|-------------------|-------------------|


  W                   W                   W                   W                 
-------------------|-------------------|-------------------|-------------------|
-------------------|-------------------|-------------------|-------------------|
-------------------|-------------------|-------------------|-------------------|
-------------------|-------------------|-------------------|-------------------|


  W                   W                   W                   W                 
-------------------|-------------------|-------------------|-------------------|
-------------------|-------------------|-------------------|-------------------|
-------------------|-------------------|-------------------|-------------------|
-------------------|-------------------|-------------------|-------------------|


  W                   W                   W                   W                 
-------------------|-------------------|-------------------|-------------------|
-------------------|-------------------|-------------------|-------------------|
-------------------|-------------------|-------------------|-------------------|
-------------------|-------------------|-------------------|-------------------|


  W                   E  E  Q    H           W                 
-------------------|----------------------|-------------------|
-------------------|----------------------|-------------------|
-------------------|----------------------|-------------------|
-------------------|--0--0----------------|-------------------|


  W                   Q    Q    H           E  E  Q    H         
-------------------|---------------------|----------------------|
-------------------|---------------------|----------------------|
-------------------|-------5----7--------|----------------------|
-------------------|---------------------|--0--0----------------|


  W                   E  E  Q    H           Q    Q    H         
-------------------|----------------------|---------------------|
-------------------|----------------------|---------------------|
-------------------|----------------------|-------5----7--------|
-------------------|--0--0----------------|---------------------|


  Q.     E  E  E  Q       H        E   E  E   E     Q.     E  E  E  Q     
-----------------------|-------------------------|-----------------------|
-----------------------|-------------------------|-----------------------|
---------7-----7-------|-----------5h--7--5h--7--|---------7-----7-------|
--0---------------0----|--L----------------------|--0---------------0----|


  Q    Q    H           Q.     E  E  E  Q       H        E   E  E   E   
---------------------|-----------------------|-------------------------|
---------------------|-----------------------|-------------------------|
-------5----7--------|---------7-----7-------|-----------5h--7--5h--7--|
--L------------------|--0---------------0----|--L----------------------|


  Q.     E  E  E  Q       E  E  Q    H           Q.     E  E  E  Q     
-----------------------|----------------------|-----------------------|
-----------------------|----------------------|-----------------------|
---------7-----7-------|--------5----7--------|---------7-----7-------|
--0---------------0----|--5--7----------------|--0---------------0----|


  H        E   E  E   E     Q.     E  E  E  Q       Q    Q    H         
-------------------------|-----------------------|---------------------|
-------------------------|-----------------------|---------------------|
-----------5h--7--5h--7--|---------7-----7-------|-------5----7--------|
--L----------------------|--0---------------0----|--L------------------|


  Q.     E  E  E  Q       H        E   E  E   E     Q.     E  E  E  Q     
-----------------------|-------------------------|-----------------------|
-----------------------|-------------------------|-----------------------|
---------7-----7-------|-----------5h--7--5h--7--|---------7-----7-------|
--0---------------0----|--L----------------------|--0---------------0----|


  Q    Q    H           Q.     E  E  E  Q       H        E   E  E   E   
---------------------|-----------------------|-------------------------|
---------------------|-----------------------|-------------------------|
-------5----7--------|---------7-----7-------|-----------5h--7--5h--7--|
--L------------------|--0---------------0----|--L----------------------|


  Q.     E  E  E  Q       Q    Q    H           Q.     E  E  E  Q     
-----------------------|---------------------|-----------------------|
-----------------------|---------------------|-----------------------|
---------7-----7-------|-------5----7--------|---------7-----7-------|
--0---------------0----|--L------------------|--0---------------0----|


  H        E   E  E   E     Q.     E  E  E  Q       Q    Q    H         
-------------------------|-----------------------|---------------------|
-------------------------|-----------------------|---------------------|
-----------5h--7--5h--7--|---------7-----7-------|-------5----7--------|
--L----------------------|--0---------------0----|--L------------------|


  E  E  E  E  E  E  E  E     E  E  E  E  E   E  E   E   
--------------------------|----------------------------|
--------------------------|--------------5h--7--5h--7--|
--0--0--0--0--0--0--0--0--|--0--0--0--0----------------|
--------------------------|----------------------------|


  E  E  E  E  E  E  E  E     E  E  E  E  E   E  E   E   
--------------------------|----------------------------|
--------------------------|--------------5h--7--5h--7--|
--0--0--0--0--0--0--0--0--|--0--0--0--0----------------|
--------------------------|----------------------------|


  E  E  E  E  E  E  E  E     E  E  E  E  E   E  E   E   
--------------------------|----------------------------|
--------------------------|----------------------------|
--------------------------|--------------5h--7--5h--7--|
--0--0--0--0--0--0--0--0--|--0--0--0--0----------------|


  E  E  E  E  E  E  E  E     E  E  E  E  E   E  E   E   
--------------------------|----------------------------|
--------------------------|----------------------------|
--------------------------|--------------5h--7--5h--7--|
--0--0--0--0--0--0--0--0--|--0--0--0--0----------------|


  E  E  E  E  E  E  E  E     E  E  E  E  E   E  E   E   
--------------------------|----------------------------|
--------------------------|--------------5h--7--5h--7--|
--0--0--0--0--0--0--0--0--|--0--0--0--0----------------|
--------------------------|----------------------------|


  E  E  E  E  E  E  E  E     E  E  E  E  E   E  E   E   
--------------------------|----------------------------|
--------------------------|--------------5h--7--5h--7--|
--0--0--0--0--0--0--0--0--|--0--0--0--0----------------|
--------------------------|----------------------------|


  E  E  E  E  E  E  E  E     E  E  E  E  E   E  E   E     Q    Q    H         
--------------------------|----------------------------|---------------------|
--------------------------|--------------5h--7--5h--7--|---------------------|
--8--8--8--8--8--8--8--8--|--8--8--8--8----------------|---------------------|
--------------------------|----------------------------|--3------------------|


  W                   W                   E  E  Q    H         
-------------------|-------------------|----------------------|
-------------------|-------------------|----------------------|
-------------------|-------------------|----------------------|
-------------------|-------------------|--0--0----------------|


  W                   W                   Q    Q    H         
-------------------|-------------------|---------------------|
-------------------|-------------------|---------------------|
-------------------|-------------------|-------5----7--------|
-------------------|-------------------|---------------------|


  E  E  Q    H           W                   E  E  Q    H         
----------------------|-------------------|----------------------|
----------------------|-------------------|----------------------|
----------------------|-------------------|----------------------|
--0--0----------------|-------------------|--0--0----------------|


  Q    Q    H           Q.     E  E  E  Q       H        E   E  E   E   
---------------------|-----------------------|-------------------------|
---------------------|-----------------------|-------------------------|
-------5----7--------|---------7-----7-------|-----------5h--7--5h--7--|
---------------------|--0---------------0----|--L----------------------|


  Q.     E  E  E  Q       Q    Q    H           Q.     E  E  E  Q     
-----------------------|---------------------|-----------------------|
-----------------------|---------------------|-----------------------|
---------7-----7-------|-------5----7--------|---------7-----7-------|
--0---------------0----|--L------------------|--0---------------0----|


  H        E   E  E   E     Q.     E  E  E  Q       E  E  Q    Q    Q     
-------------------------|-----------------------|-----------------------|
-------------------------|-----------------------|--5--------------------|
-----------5h--7--5h--7--|---------7-----7-------|-----7-------5----7----|
--L----------------------|--0---------------0----|--------7--------------|


  Q.     E  E  E  Q       H        E   E  E   E     Q.     E  E  E  Q     
-----------------------|-------------------------|-----------------------|
-----------------------|-------------------------|-----------------------|
---------7-----7-------|-----------5h--7--5h--7--|---------7-----7-------|
--0---------------0----|--L----------------------|--0---------------0----|


  Q    Q    H           Q.     E  E  E  Q       H        E   E  E   E   
---------------------|-----------------------|-------------------------|
---------------------|-----------------------|-------------------------|
-------5----7--------|---------7-----7-------|-----------5h--7--5h--7--|
--L------------------|--0---------------0----|--L----------------------|


  Q.     E  E  E  Q       Q    Q    H           Q.     E  E  E  Q     
-----------------------|---------------------|-----------------------|
-----------------------|---------------------|-----------------------|
---------7-----7-------|-------5----7--------|---------7-----7-------|
--0---------------0----|--L------------------|--0---------------0----|


  H        E   E  E   E     Q.     E  E  E  Q       Q    Q    H         
-------------------------|-----------------------|---------------------|
-------------------------|-----------------------|---------------------|
-----------5h--7--5h--7--|---------7-----7-------|-------5----7--------|
--L----------------------|--0---------------0----|--L------------------|


  Q.     E  E  E  Q       H        E   E  E   E     Q.     E  E  E  Q     
-----------------------|-------------------------|-----------------------|
-----------------------|-------------------------|-----------------------|
---------7-----7-------|-----------5h--7--5h--7--|---------7-----7-------|
--0---------------0----|--L----------------------|--0---------------0----|


  Q    Q    H           E  E  E  E  E  E  E  E     E  E  E  E  E   E  E   E   
---------------------|--------------------------|----------------------------|
---------------------|--------------------------|--------------5h--7--5h--7--|
-------5----7--------|--0--0--0--0--0--0--0--0--|--0--0--0--0----------------|
--L------------------|--------------------------|----------------------------|


  E  E  E  E  E  E  E  E     E  E  E  E  E   E  E   E   
--------------------------|----------------------------|
--------------------------|--------------5h--7--5h--7--|
--0--0--0--0--0--0--0--0--|--0--0--0--0----------------|
--------------------------|----------------------------|


  E  E  E  E  E  E  E  E     E  E  E  E  E   E  E   E   
--------------------------|----------------------------|
--------------------------|----------------------------|
--------------------------|--------------5h--7--5h--7--|
--0--0--0--0--0--0--0--0--|--0--0--0--0----------------|


  E  E  E  E  E  E  E  E     E  E  E  E  E   E  E   E   
--------------------------|----------------------------|
--------------------------|----------------------------|
--------------------------|--------------5h--7--5h--7--|
--0--0--0--0--0--0--0--0--|--0--0--0--0----------------|


  E  E  E  E  E  E  E  E     E  E  E  E  E   E  E   E   
--------------------------|----------------------------|
--------------------------|--------------5h--7--5h--7--|
--0--0--0--0--0--0--0--0--|--0--0--0--0----------------|
--------------------------|----------------------------|


  E  E  E  E  E  E  E  E     E  E  E  E  E   E  E   E   
--------------------------|----------------------------|
--------------------------|--------------5h--7--5h--7--|
--0--0--0--0--0--0--0--0--|--0--0--0--0----------------|
--------------------------|----------------------------|


  E  E  E  E  E  E  E  E     E  E  E  E  E   E  E   E     Q    Q    H         
--------------------------|----------------------------|---------------------|
--------------------------|--------------5h--7--5h--7--|---------------------|
--8--8--8--8--8--8--8--8--|--8--8--8--8----------------|---------------------|
--------------------------|----------------------------|--3------------------|


  W                   W                   E  E  Q    H         
-------------------|-------------------|----------------------|
-------------------|-------------------|----------------------|
-------------------|-------------------|----------------------|
-------------------|-------------------|--0--0----------------|


  W                   W                   Q    Q    H         
-------------------|-------------------|---------------------|
-------------------|-------------------|---------------------|
-------------------|-------------------|-------5----7--------|
-------------------|-------------------|---------------------|


  E  E  Q    H           W                   E  E  Q    H         
----------------------|-------------------|----------------------|
----------------------|-------------------|----------------------|
----------------------|-------------------|----------------------|
--0--0----------------|-------------------|--0--0----------------|


  Q    Q    H           Q.     E  E  E  Q       H        E   E  E   E   
---------------------|-----------------------|-------------------------|
---------------------|-----------------------|-------------------------|
-------5----7--------|---------7-----7-------|-----------5h--7--5h--7--|
---------------------|--0---------------0----|--L----------------------|


  Q.     E  E  E  Q       W                   Q.     E  E  E  Q     
-----------------------|-------------------|-----------------------|
-----------------------|-------------------|-----------------------|
---------7-----7-------|-------------------|---------7-----7-------|
--0---------------0----|--L----------------|--0---------------0----|


  H        E   E  E   E     Q.     E  E  E  Q       W                 
-------------------------|-----------------------|-------------------|
-------------------------|-----------------------|-------------------|
-----------5h--7--5h--7--|---------7-----7-------|-------------------|
--L----------------------|--0---------------0----|--L----------------|


  Q.     E  E  E  Q       H        E   E  E   E     Q.     E  E  E  Q     
-----------------------|-------------------------|-----------------------|
-----------------------|-------------------------|-----------------------|
---------7-----7-------|-----------5h--7--5h--7--|---------7-----7-------|
--0---------------0----|--L----------------------|--0---------------0----|


  W                   Q.     E  E  E  Q       H        E   E  E   E   
-------------------|-----------------------|-------------------------|
-------------------|-----------------------|-------------------------|
-------------------|---------7-----7-------|-----------5h--7--5h--7--|
--L----------------|--0---------------0----|--L----------------------|


  Q.     E  E  E  Q       W                   Q.     E  H         
-----------------------|-------------------|---------------------|
-----------------------|-------------------|---------------------|
---------7-----7-------|-------------------|--3------2--L--------|
--0---------------0----|--L----------------|---------------------|


  Q.     E  H           Q.     E  H           H.           E  E   
---------------------|---------------------|---------------------|
---------------------|---------------------|---------------------|
--0------------------|---------------------|--5------------0--2--|
---------3--L--------|--2------0--L--------|---------------------|


  Q.     E  H           Q.     E  H           Q.     Q.     Q      
---------------------|---------------------|----------------------|
---------------------|---------------------|----------------------|
--3------2--L--------|--0------------------|----------------5S----|
---------------------|---------3--L--------|--2------0------------|


  W                   W                   W                   W                 
-------------------|-------------------|-------------------|-------------------|
-------------------|-------------------|-------------------|-------------------|
--L----------------|--L----------------|-------------------|-------------------|
-------------------|-------------------|-------------------|-------------------|


  W                   W                   W                   W                 
-------------------|-------------------|-------------------|-------------------|
-------------------|-------------------|-------------------|-------------------|
-------------------|-------------------|-------------------|-------------------|
-------------------|-------------------|-------------------|-------------------|


  W                   W                   Q.     E  E  E  Q     
-------------------|-------------------|-----------------------|
-------------------|-------------------|-----------------------|
-------------------|-------------------|---------7-----7-------|
-------------------|-------------------|--0---------------0----|


  H        E   E  E   E     Q.     E  E  E  Q       W                 
-------------------------|-----------------------|-------------------|
-------------------------|-----------------------|-------------------|
-----------5h--7--5h--7--|---------7-----7-------|-------------------|
--L----------------------|--0---------------0----|--L----------------|


  Q.     E  E  E  Q       H        E   E  E   E     Q.     E  E  E  Q     
-----------------------|-------------------------|-----------------------|
-----------------------|-------------------------|-----------------------|
---------7-----7-------|-----------5h--7--5h--7--|---------7-----7-------|
--0---------------0----|--L----------------------|--0---------------0----|


  W                   Q.     E  E  E  Q       H        E   E  E   E   
-------------------|-----------------------|-------------------------|
-------------------|-----------------------|-------------------------|
-------------------|---------7-----7-------|-----------5h--7--5h--7--|
--L----------------|--0---------------0----|--L----------------------|


  Q.     E  E  E  Q       W                   Q.     E  E  E  Q     
-----------------------|-------------------|-----------------------|
-----------------------|-------------------|-----------------------|
---------7-----7-------|-------------------|---------7-----7-------|
--0---------------0----|--L----------------|--0---------------0----|


  H        E   E  E   E     E  E  E  E  Q    Q       W                 
-------------------------|------------------------|-------------------|
-------------------------|------------------------|-------------------|
-----------5h--7--5h--7--|-----------7------------|-------------------|
--L----------------------|--0--0-------------0----|--L----------------|


  E  E  E  E  E  E  E  E     E  E  E  E  E   E  E   E   
--------------------------|----------------------------|
--------------------------|--------------5h--7--5h--7--|
--0--0--0--0--0--0--0--0--|--0--0--0--0----------------|
--------------------------|----------------------------|


  E  E  E  E  E  E  E  E     E  E  E  E  E   E  E   E   
--------------------------|----------------------------|
--------------------------|--------------5h--7--5h--7--|
--0--0--0--0--0--0--0--0--|--0--0--0--0----------------|
--------------------------|----------------------------|


  E  E  E  E  E  E  E  E     E  E  E  E  E   E  E   E   
--------------------------|----------------------------|
--------------------------|----------------------------|
--------------------------|--------------5h--7--5h--7--|
--0--0--0--0--0--0--0--0--|--0--0--0--0----------------|


  E  E  E  E  E  E  E  E     E  E  E  E  E   E  E   E   
--------------------------|----------------------------|
--------------------------|----------------------------|
--------------------------|--------------5h--7--5h--7--|
--0--0--0--0--0--0--0--0--|--0--0--0--0----------------|


  E  E  E  E  E  E  E  E     E  E  E  E  E   E  E   E   
--------------------------|----------------------------|
--------------------------|--------------5h--7--5h--7--|
--0--0--0--0--0--0--0--0--|--0--0--0--0----------------|
--------------------------|----------------------------|


  E  E  E  E  E  E  E  E     E  E  E  E  E   E  E   E   
--------------------------|----------------------------|
--------------------------|--------------5h--7--5h--7--|
--0--0--0--0--0--0--0--0--|--0--0--0--0----------------|
--------------------------|----------------------------|


  E  E  E  E  E  E  E  E     E  E  E  E  E   E  E   E   
--------------------------|----------------------------|
--------------------------|--------------5h--7--5h--7--|
--8--8--8--8--8--8--8--8--|--8--8--8--8----------------|
--------------------------|----------------------------|


  E  E  E  E  E  E  E  E     E  E  E  E  E   E  E   E   
--------------------------|----------------------------|
--------------------------|--------------5h--7--5h--7--|
--8--8--8--8--8--8--8--8--|--8--8--8--8----------------|
--------------------------|----------------------------|


  E  E  E  E  E  E  E  E     E  E  E  E  E  E  E  E     E  Q    E  Q    E  E   
--------------------------|--------------------------|------------------------|
--5--5--5--5--5--5--5--5--|--5--5--5--5--5--5--5--5--|------------------------|
--------------------------|--------------------------|-----8-------7-------5--|
--------------------------|--------------------------|------------------------|


  E  E  Q    E  E  Q       E  E  E  E  E  E  E  E   
------------------------|--------------------------|
------------------------|--------------------------|
--L-----3----2--0-------|--0--0--0--0--0--0--0--0--|
-------------------3----|--------------------------|


  E  E  E  E  E   E  E   E     E  E  E  E  E  E  E  E   
----------------------------|--------------------------|
--------------5h--7--5h--7--|--------------------------|
--0--0--0--0----------------|--0--0--0--0--0--0--0--0--|
----------------------------|--------------------------|


  E  E  E  E  E   E  E   E     E  E  E  E  E  E  E  E   
----------------------------|--------------------------|
--------------5h--7--5h--7--|--------------------------|
--0--0--0--0----------------|--------------------------|
----------------------------|--0--0--0--0--0--0--0--0--|


  E  E  E  E  E   E  E   E     E  E  E  E  E  E  E  E   
----------------------------|--------------------------|
----------------------------|--------------------------|
--------------5h--7--5h--7--|--------------------------|
--0--0--0--0----------------|--0--0--0--0--0--0--0--0--|


  E  E  E  E  E  E  E  E     E  E  E  E  E  E  E  E   
--------------------------|--------------------------|
--------------------0--2--|--------------------------|
-----------0--2--3--------|--0--0--0--0--0--0--0--0--|
--0--2--3-----------------|--------------------------|


  E  E  E  E  E   E  E   E     E  E  E  E  E  E  E  E   
----------------------------|--------------------------|
--------------5h--7--5h--7--|--------------------------|
--0--0--0--0----------------|--0--0--0--0--0--0--0--0--|
----------------------------|--------------------------|


  E  E  E  E  E   E  E   E     E  E  E  E  E  E  E  E   
----------------------------|--------------------------|
--------------5h--7--5h--7--|--------------------------|
--0--0--0--0----------------|--8--8--8--8--8--8--8--8--|
----------------------------|--------------------------|


  E  E  E  E  E   E  E   E     E  E  E  E  E  E  E  E   
----------------------------|--------------------------|
--------------5h--7--5h--7--|--------------------------|
--8--8--8--8----------------|--8--8--8--8--8--8--8--8--|
----------------------------|--------------------------|


  E  E  E  E  E   E  E   E     E  E  E  E  E  E  E  E   
----------------------------|--------------------------|
--------------5h--7--5h--7--|--5--5--5--5--5--5--5--5--|
--8--8--8--8----------------|--------------------------|
----------------------------|--------------------------|


  E  E  E  E  E  E  E  E     E  Q    E  Q    E  E     E  E  Q    E  E  Q     
--------------------------|------------------------|------------------------|
--5--5--5--5--5--5--5--5--|------------------------|------------------------|
--------------------------|-----8-------7-------5--|--L-----3----2--0-------|
--------------------------|------------------------|-------------------3----|


  E  E  E  E  E  E  E  E     E  E  E  E  E   E  E   E   
--------------------------|----------------------------|
--------------------------|--------------5h--7--5h--7--|
--0--0--0--0--0--0--0--0--|--0--0--0--0----------------|
--------------------------|----------------------------|


  E  E  E  E  E  E  E  E     E  E  E  E  E   E  E   E   
--------------------------|----------------------------|
--------------------------|--------------5h--7--5h--7--|
--0--0--0--0--0--0--0--0--|--0--0--0--0----------------|
--------------------------|----------------------------|


  E  E  E  E  E  E  E  E     E  E  E  E  E   E  E   E   
--------------------------|----------------------------|
--------------------------|----------------------------|
--------------------------|--------------5h--7--5h--7--|
--0--0--0--0--0--0--0--0--|--0--0--0--0----------------|


  E  E  E  E  E  E  E  E     E  E  E  E  E   E  E   E   
--------------------------|----------------------------|
--------------------------|----------------------------|
--------------------------|--------------5h--7--5h--7--|
--0--0--0--0--0--0--0--0--|--0--0--0--0----------------|


  E  E  E  E  E  E  E  E     E  E  E  E  E   E  E   E   
--------------------------|----------------------------|
--------------------------|--------------5h--7--5h--7--|
--0--0--0--0--0--0--0--0--|--0--0--0--0----------------|
--------------------------|----------------------------|


  E  E  E  E  E  E  E  E     E  E  E  E  E   E  E   E   
--------------------------|----------------------------|
--------------------------|--------------5h--7--5h--7--|
--0--0--0--0--0--0--0--0--|--0--0--0--0----------------|
--------------------------|----------------------------|


  E  E  E  E  E  E  E  E     E  E  E  E  E   E  E   E   
--------------------------|----------------------------|
--------------------------|--------------5h--7--5h--7--|
--8--8--8--8--8--8--8--8--|--8--8--8--8----------------|
--------------------------|----------------------------|


  E  E  E  E  E  E  E  E     E  E  E  E  E   E  E   E   
--------------------------|----------------------------|
--------------------------|--------------5h--7--5h--7--|
--8--8--8--8--8--8--8--8--|--8--8--8--8----------------|
--------------------------|----------------------------|


  E  E  E  E  E  E  E  E     E  E  E  E  E  E  E  E   
--------------------------|--------------------------|
--5--5--5--5--5--5--5--5--|--5--3--2-----------------|
--------------------------|-----------5--3--2-----5--|
--------------------------|--------------------5-----|


  E  E  E  E  E  E  E  E     E  E  E  E  E  E  E  E    
--------------------------|--------------------------||
--------------------------|--------------------------||
--------------------------|--------------------------||
--3--3--3--3--3--3--3--3--|--3--3--3--3--3--3--3--3--||




Duration Legend
---------------
W - whole
H - half
Q - quarter
E - 8th
S - 16th
T - 32nd
X - 64th
. - note dotted
|-n-|  - n-tuplets


Tablature Legend
----------------
L - tied note
x - dead note
g - grace note
(n) - ghost note
> - accentuded note
NH - natural harmonic
AH - artificial harmonic
TH - tapped harmonic
SH - semi harmonic
PH - pitch harmonic
h - hammer on
p - pull off
b - bend
br - bendRelease
pb - preBend
pbr - preBendRelease
brb - bendReleaseBend
\n/ - tremolo bar dip
\n - tremolo bar dive
-/n - tremolo bar Release up
/n\ - tremolo bar inverted dip
/n - tremolo bar return
-\n - tremolo bar Release down
S - shift slide
s - legato slide
/ -  slide into from below or out of upwards
\ -  slide into from above or out of downwards
~ - vibrato
W - wide vibrato
tr - trill
TP - tremolo picking
T - tapping
S - slap
P - pop
< - fade in
^ - brush up
v - brush down

            
            
Suggest correction
Creating personal tab
Creating personal tab
You can edit any tab online and save it as your Personal.

You can edit, replace or remove any tab part or add personal notes – all changes will be seen only by you.

Personal tabs can be accessed anytime from any device, even offline.
Learn more »
Give kudos to tab author, rate the tab!
1 2 3 4 5
comments
print report bad tab
guest
Wanna post a correction for this tab? Suggest correction