Oops, an error
Loading. Please wait.

Flight Of The Rat bass

version 1
version 1

Whole song

Interactive

1,303 views 6 this week
no commentswrite comment
1 2 3 4 5
3 more votes to show rating
add to favorites
×
Save as Personal and add changes to this tab that will be seen only by you. Learn more ›
×
You can save this tab as Personal to edit and correct it or add notes. All changes will be seen only by you. Learn more »
launch autoscroll
font size
0
reset
guitar tuner
backing track
0:00
0:00
edit
Autoscroll
slow
fast
+/-
esc
set tempo
stop
             H        Q.     S S        H        Q.     S S  
G||-------|----------------------|--------------------------|
D||-------|----------------------|--------------------------|
A||-------|----------------------|--------------------------|
E||-------|------------------3-2-|--15g17--------L------3-2-|


    H        H           E.  E.  E.  E.  E  E      E.  E.  E.  E.  E  E   
----------------------|-------------------------|------------------------|
----------------------|-------------------------|------------------------|
----------------------|--0---0---0---0----------|------0---0---0---------|
--3g5--------L--------|------------------3--2S--|--5---------------3--2--|


  E.  E.  E.  E.  E  E     E.  E.  E.  E.  E  E     E.  E.  E.  E.  E  E   
------------------------|------------------------|------------------------|
------------------------|------------------------|------------------------|
--0---0---0---0---------|--0---0---0---0---------|--0---0---0---0---------|
------------------3--2--|------------------3--2--|------------------3--2--|


  E.  E.  E.  E.  E  E     E.  E.  E.  E.  E  E     E.  E.  E.  E.  E  E   
------------------------|------------------------|------------------------|
------------------------|------------------------|------------------------|
------0---0---0---------|--0---0---0---0------5--|--0---0---0---0---------|
--5---------------3--2--|------------------3-----|------------------3--2--|


  E.  E.  E.  E.  E  E     E.  E.  E.  E.  E  E     E.  E.  E.  E.  E  E   
------------------------|------------------------|------------------------|
------------------------|------------------------|------------------------|
--0---0---0---0------5--|--0---0---0---0---------|--0---0---0---0------5--|
------------------3-----|------------------3--2--|------------------3-----|


  E.  E.  E.  E.  E  E     E.  E.  E.  E.  E  E     E.  E.  E.  E.  E  E   
------------------------|------------------------|------------------------|
------------------------|------------------------|------------------------|
--0---0---0---0---------|--0---0---0---0------5--|--0---0---0---0---------|
------------------3--2--|------------------3-----|------------------3--2--|


  E.  E.  E.  E.  E  E     E.  E.  E.  E.  E  E     E.  E.  E.  E.  E  E   
------------------------|------------------------|------------------------|
------------------------|------------------------|------------------------|
--0---0---0---0---------|------------------5--6--|--7-------7-------5--6--|
------------------3--2--|--0---0---0---0---------|------0-------0---------|


  E.  E.  E.  E.  E  E     E.  E.  E.  E.  E  E     H         H         
------------------------|------------------------|---------------------|
------------------------|------------------------|---------------------|
--7-------7-------5--6--|--7-------7-------5--6--|--0~-----------------|
------0-------0---------|------0-------0---------|---------------------|


  W                   W                   E.  E.  E.  E.  E  E   
-------------------|-------------------|------------------------|
-------------------|-------------------|------------------------|
-------------------|-------------------|--0---0---0---0------5--|
-------------------|-------------------|------------------3-----|


  E.  E.  E.  E.  E  E     E.  E.  E.  E.  E  E     E.  E.  E.  E.  E  E   
------------------------|------------------------|------------------------|
------------------------|------------------------|------------------------|
--0---0---0---0---------|--0---0---0---0------5--|--0---0---0---0---------|
------------------3--2--|------------------3-----|------------------3--2--|


  E.  E.  E.  E.  E  E     E.  E.  E.  E.  E  E     E.  E.  E.  E.  E  E   
------------------------|------------------------|------------------------|
------------------------|------------------------|------------------------|
--0---0---0---0------5--|--0---0---0---0---------|--0---0---0---0------5--|
------------------3-----|------------------3--2--|------------------3-----|


  E.  E.  E.  E.  E  E     E.  E.  E.  E.  E  E     E.  E.  E.  E.  E  E   
------------------------|------------------------|------------------------|
------------------------|------------------------|------------------------|
--0---0---0---0---------|--0---0---0---0------5--|--0---0---0---0---------|
------------------3--2--|------------------3-----|------------------3--2--|


  E.  E.  E.  E.  E  E     E.  E.  E.  E.  E  E     E.  E.  E.  E.  E  E   
------------------------|------------------------|------------------------|
------------------------|------------------------|------------------------|
--0---0---0---0------5--|--0---0---0---0---------|--0---0---0---0---------|
------------------3-----|------------------3--2--|------------------3--2--|


  E.  E.  E.  E.  E  E     E.  E.  E.  E.  E  E     E.  E.  E.  E.  E  E   
------------------------|------------------------|------------------------|
------------------------|------------------------|------------------------|
------------------5--6--|--7-------7-------5--6--|--7-------7-------5--6--|
--0---0---0---0---------|------0-------0---------|------0-------0---------|


  E.  E.  E.  E.  E  E     H         H                         
------------------------|---------------------|-------|-------|
------------------------|---------------------|-------|-------|
--7-------7-------5--6--|--0~-----------------|-------|-------|
------0-------0---------|---------------------|-------|-------|


  E.  E.  E.  E.  E  E     E.  E.  E.  E.  E  E     E.  E.  E.  E.  E  E   
------------------------|------------------------|------------------------|
------------------------|------------------------|------------------------|
------------------------|------------------------|------------------------|
--7---7---7---7---5--6--|--7---7---7---7---5--6--|--7---7---7---7---5--6--|


                           >   >   >   >   >  >     >   >   >   >   >  >   
  E.  E.  E.  E.  E  E     E.  E.  E.  E.  E  E     E.  E.  E.  E.  E  E   
------------------------|------------------------|------------------------|
------------------------|------------------------|------------------------|
------------------------|------------------------|------------------------|
--7---7---7---7---5--6--|--7---7---7---7---5--6--|--7---7---7---7---5--6--|


  >   >   >   >   >  >     >   >   >   >   >  >     >                 
  E.  E.  E.  E.  E  E     E.  E.  E.  E.  E  E     W                 
------------------------|------------------------|-------------------|
------------------------|------------------------|-------------------|
------------------------|------------------------|--7----------------|
--7---7---7---7---5--6--|--7---7---7---7---5--6--|--0----------------|


  >                   >                   >                   >                 
  W                   W                   W                   W                 
-------------------|-------------------|-------------------|-------------------|
-------------------|--5----------------|--7----------------|-------------------|
--5----------------|--2----------------|--4----------------|--2----------------|
--5----------------|-------------------|-------------------|--0----------------|


  >   >   >   >   >  >     >   >   >  >    >       >   >   >   >   >  >   
  E.  E.  E.  E.  E  E     E.  E.  E  Q    Q       E.  E.  E.  E.  E  E   
------------------------|-----------------------|------------------------|
------------------------|-----------------------|------------------------|
--0---0---0---0---------|--0----------0----0----|--0---0---0---0---------|
------------------3--2--|------3---4------------|------------------3--2--|


  E.  E.  E.  E.  E  E     E.  E.  E.  E.  E  E     E.  E.  E.  E.  E  E   
------------------------|------------------------|------------------------|
------------------------|------------------------|------------------------|
--0---0---0---0---------|--0---0---0---0---------|--0---0---0---0---------|
------------------3--2--|------------------3--2--|------------------3--2--|


  E.  E.  E.  E.  E  E     E.  E.  E.  E.  E  E     E.  E.  E.  E.  E  E   
------------------------|------------------------|------------------------|
------------------------|------------------------|------------------------|
--0---0---0---0---------|--0---0---0---0---------|--0---0---0---0---------|
------------------3--2--|------------------3--2--|------------------3--2--|


  E.  E.  E.  E.  E  E     E.  E.  E.  E.  E  E     E.  E.  E.  E.  E  E   
------------------------|------------------------|------------------------|
------------------------|------------------------|------------------------|
--0---0---0---0---------|--0---0---0---0---------|--0---0---0---0---------|
------------------3--2--|------------------3--2--|------------------3--2--|


  E.  E.  E.  E.  E  E     E.  E.  E.  E.  E  E     E.  E.  E.  E.  E  E   
------------------------|------------------------|------------------------|
------------------------|------------------------|------------------------|
--0---0---0---0---------|--0---0---0---0---------|--0---0---0---0---------|
------------------3--2--|------------------3--2--|------------------3--2--|


  E.  E.  E.  E.  E  E     E.  E.  E.  E.  E  E     E.  E.  E.  E.  E  E   
------------------------|------------------------|------------------------|
------------------------|------------------------|------------------------|
------------------5--6--|--7-------7-------5--6--|--7-------7-------5--6--|
--0---0---0---0---------|------0-------0---------|------0-------0---------|


  E.  E.  E.  E.  E  E     H         H                         
------------------------|---------------------|-------|-------|
------------------------|---------------------|-------|-------|
--7-------7-------5--6--|--0~-----------------|-------|-------|
------0-------0---------|---------------------|-------|-------|


  E.  E.  E.  E.  E  E     E.  E.  E.  E.  E  E     E.  E.  E.  E.  E  E   
------------------------|------------------------|------------------------|
------------------------|------------------------|------------------------|
------------------------|------------------------|------------------------|
--7---7---7---7---5--6--|--7---7---7---7---5--6--|--7---7---7---7---5--6--|


  E.  E.  E.  E.  E  E     E.  E.  E.  E.  E  E     E.  E.  E.  E.  E  E   
------------------------|------------------------|------------------------|
------------------------|------------------------|------------------------|
------------------------|------------------------|------------------------|
--7---7---7---7---5--6--|--7---7---7---7---5--6--|--7---7---7---7---5--6--|


  E.  E.  E.  E.  E  E     E.  E.  E.  E.  E  E     E.  E.  E.  E.  E  E   
------------------------|------------------------|------------------------|
------------------------|------------------------|------------------------|
------------------------|------------------------|------------------------|
--7---7---7---7---5--6--|--7---7---7---7---5--6--|--7---7---7---7---5--6--|


  E.  E.  E.  E.  E  E     E.  E.  E.  E.  E  E     E.  E.  E.  E.  E  E   
------------------------|------------------------|------------------------|
------------------------|------------------------|------------------------|
------------------------|------------------------|------------------------|
--7---7---7---7---5--6--|--7---7---7---7---5--6--|--7---7---7---7---5--6--|


  E.  E.  E.  E.  E  E     E.  E.  E.  E.  E  E     E.  E.  E.  E.  E  E   
------------------------|------------------------|------------------------|
------------------------|------------------------|------------------------|
------------------------|------------------------|------------------------|
--7---7---7---7---5--6--|--7---7---7---7---5--6--|--7---7---7---7---5--6--|


  E.  E.  E.  E.  E  E     E.  E.  E.  E.  E  E     E.  E.  E.  E.  E  E   
------------------------|------------------------|------------------------|
------------------------|------------------------|------------------------|
------------------------|------------------------|------------------------|
--7---7---7---7---5--6--|--7---7---7---7---5--6--|--7---7---7---7---5--6--|


  E.  E.  E.  E.  E  E     E.  E.  E.  E.  E  E     E.  E.  E.  E.  E  E   
------------------------|------------------------|------------------------|
------------------------|------------------------|------------------------|
------------------------|------------------------|------------------------|
--7---7---7---7---5--6--|--7---7---7---7---5--6--|--7---7---7---7---5--6--|


  E.  E.  E.  E.  E  E     E.  E.  E.  E.  E  E     E.  E.  E.  E.  E  E   
------------------------|------------------------|------------------------|
------------------------|------------------------|------------------------|
------------------------|------------------------|--5---5---5---5---5--5--|
--7---7---7---7---5--6--|--7---7---7---7---5--6--|------------------------|


  E.  E.  E.  E.  E  E     E.  E.  E.  E.  E  E     E.  E.  E.  E.  E  E   
------------------------|------------------------|------------------------|
------------------------|------------------------|------------------------|
--4---4---4---4---4--4--|--3---3---3---3---3--3--|------------------------|
------------------------|------------------------|--7---7---7---7---7--7--|


  E.  E.  E.  E.  E  E     E.  E.  E.  E.  E  E     E.  E.  E.  E.  E  E   
------------------------|------------------------|------------------------|
------------------------|------------------------|------------------------|
--5---5---5---5---5--5--|--4---4---4---4---4--4--|--3---3---3---3---3--3--|
------------------------|------------------------|------------------------|


  E.  E.  E.  E.  E  E     E.  E.  E.  E.   E   E     E.  E.  E.  E.  E  E   
------------------------|--------------------------|------------------------|
------------------------|--------------------------|------------------7--5--|
------------------------|--------------------------|--7---7---7---7---------|
--7---7---7---7---7--7--|--6---7---8---9---10--11--|------------------------|


  E.  E.  E.  E.  E  E     E.  E.  E.  E.  E  E     E.  E.  E.  E.  E  E   
------------------------|------------------------|------------------------|
------------------7--5--|------------------7--5--|------------------7--5--|
--7---7---7---7---------|--7---7---7---7---------|--7---7---7---7---------|
------------------------|------------------------|------------------------|


  E.  E.  E.  E.  E  E     E.  E.  E.  E.  E  E     E.  E.  E.  E.  E  E   
------------------------|------------------------|------------------------|
------------------7--5--|------------------7--5--|--------------5------5--|
--7---7---7---7---------|--7---7---7---7---------|--7---7---7-------7-----|
------------------------|------------------------|------------------------|


  E.  E.  E.  E.  E  E     E.  E.  E.  E.  E  E     E.  E.  E.  E.  E  E   
------------------------|------------------------|------------------------|
------------------7--5--|------------------7--5--|------------------7--5--|
--7---7---7---7---------|--7---7---7---7---------|--7---7---7---7---------|
------------------------|------------------------|------------------------|


  E.  E.  E.  E.  E  E     E.  E.  E.  E.  E  E     E.  E.  E.  E.  E  E   
------------------------|------------------------|------------------------|
------------------5--7--|------------------5--7--|--------------5---5--5--|
--7---7---7---7---------|--7---7---7---7---------|--7---7---7-------------|
------------------------|------------------------|------------------------|


  E.  E.  E.  E.  E  E     E.  E.  E.  E.  E  E     E.  E.  E.  E.  E  E   
------------------------|------------------------|------------------------|
--------------7---L--5--|--------------7---L--5--|--------------5------5--|
--7---7---7-------------|--7---7---7-------------|--7---7---7-------7-----|
------------------------|------------------------|------------------------|


  E.  E.  E.  E.  E  E     E.  E.  E.  E.  E  E     E.  E.  E.  E.  E  E   
------------------------|------------------------|------------------------|
------------------7--5--|------------------7--5--|------------------7--5--|
--7---7---7---7---------|--7---7---7---7---------|--7---7---7---7---------|
------------------------|------------------------|------------------------|


  E.  E.  E.  E.  E  E     E.  E.  E.  E.  E  E     E.  E.  E.  E.  E  E   
------------------------|------------------------|------------------------|
------------------7--5--|------------------7--5--|------------------7--5--|
--7---7---7---7---------|--7---7---7---7---------|--7---7---7---7---------|
------------------------|------------------------|------------------------|


  E.  E.  E.  E.  E  E     E.  E.  E.  E.  E  E     E  H        Q    E         
------------------------|------------------------|----------------------|-----|
------------------7--5--|------------------7--5--|----------------------|-----|
--7---7---7---7---------|--7---7---7---7---------|--7-------------------|-----|
------------------------|------------------------|----------------------|-----|


-----|-----|-----|-----|-----|-----|-----|-----|-----|-----|-----|-----|
-----|-----|-----|-----|-----|-----|-----|-----|-----|-----|-----|-----|
-----|-----|-----|-----|-----|-----|-----|-----|-----|-----|-----|-----|
-----|-----|-----|-----|-----|-----|-----|-----|-----|-----|-----|-----|


  H        Q.     S S        H        Q.     S S      H        H         
----------------------|--------------------------|----------------------|
----------------------|--------------------------|----------------------|
----------------------|--------------------------|----------------------|
------------------3-2-|--15g17--------L------3-2-|--3g5--------L--------|


  E.  E.  E.  E.  E  E     E.  E.  E.  E.  E  E     E.  E.  E.  E.  E  E   
------------------------|------------------------|------------------------|
------------------------|------------------------|------------------------|
--0---0---0---0---------|--0---0---0---0---------|--0---0---0---0---------|
------------------3--2--|------------------3--2--|------------------3--2--|


  E.  E.  E.  E.  E  E     E.  E.  E.  E.  E  E     E.  E.  E.  E.  E  E   
------------------------|------------------------|------------------------|
------------------------|------------------------|------------------------|
--0---0---0---0---------|--0---0---0---0---------|--0---0---0---0---------|
------------------3--2--|------------------3--2--|------------------3--2--|


  E.  E.  E.  E.  E  E     E.  E.  E.  E.  E  E     E.  E.  E.  E.  E  E   
------------------------|------------------------|------------------------|
------------------------|------------------------|------------------------|
--0---0---0---0---------|--0---0---0---0---------|--0---0---0---0---------|
------------------3--2--|------------------3--2--|------------------3--2--|


  E.  E.  E.  E.  E  E     E.  E.  E.  E.  E  E     E.  E.  E.  E.  E  E   
------------------------|------------------------|------------------------|
------------------------|------------------------|------------------------|
--0---0---0---0---------|--0---0---0---0---------|------------------5--6--|
------------------3--2--|------------------3--2--|--0---0---0---0---------|


  E.  E.  E.  E.  E  E     E.  E.  E.  E.  E  E     E.  E.  E.  E.  E  E   
------------------------|------------------------|------------------------|
------------------------|------------------------|------------------------|
--7-------7-------5--6--|--7-------7-------5--6--|--7-------7-------5--6--|
------0-------0---------|------0-------0---------|------0-------0---------|


  H         H                                                               
---------------------|-----|-----|-----|-----|-----|-----|-----|-----|-----|
---------------------|-----|-----|-----|-----|-----|-----|-----|-----|-----|
--0~-----------------|-----|-----|-----|-----|-----|-----|-----|-----|-----|
---------------------|-----|-----|-----|-----|-----|-----|-----|-----|-----|


                    H        Q.     S S  
-----|-----|-----|----------------------|
-----|-----|-----|----------------------|
-----|-----|-----|----------------------|
-----|-----|-----|------------------3-2-|


   S  S  S  S  S  S  S  S  S  S  S  S  S  S  S  S  
--------------------------------------------------|
--------------------------------------------------|
--12-12-12-12-12-12-12-12-12-12-12-12-12-12-12-12-|
--------------------------------------------------|


   S  S  S  S  S  S  S  S  S  S  S  S  S  S  S  S    E.  E.  E.  E.  E  E   
--------------------------------------------------|------------------------|
--------------------------------------------------|------------------------|
--12-12-12-12-12-12-12-12-12-12-12-12-12-12-12-12-|--0---0---0---0---------|
--------------------------------------------------|------------------3--2--|


  E.  E.  E.  E.  E  E     E.  E.  E.  E.  E  E     E.  E.  E.  E.  E  E   
------------------------|------------------------|------------------------|
------------------------|------------------------|------------------------|
--0---0---0---0---------|--0---0---0---0---------|--0---0---0---0---------|
------------------3--2--|------------------3--2--|------------------3--2--|


  E.  E.  E.  E.  E  E     E.  E.  E.  E.  E  E     E.  E.  E.  E.  E  E   
------------------------|------------------------|------------------------|
------------------------|------------------------|------------------------|
--0---0---0---0---------|--0---0---0---0---------|--0---0---0---0---------|
------------------3--2--|------------------3--2--|------------------3--2--|


  E.  E.  E.  E.  E  E     H         H                                       
------------------------|---------------------|-----|-----|-----|-----|-----|
------------------------|---------------------|-----|-----|-----|-----|-----|
--0---0---0---0---------|--0~-----------------|-----|-----|-----|-----|-----|
------------------3--2--|---------------------|-----|-----|-----|-----|-----|


-----|-----|-----|-----|-----|-----|-----|-----|-----|-----|-----|-----|-----|
-----|-----|-----|-----|-----|-----|-----|-----|-----|-----|-----|-----|-----|
-----|-----|-----|-----|-----|-----|-----|-----|-----|-----|-----|-----|-----|
-----|-----|-----|-----|-----|-----|-----|-----|-----|-----|-----|-----|-----|


                                      E  S S S S S S S S S S S S S S   
-----|-----|-----|-----|-----|-----|----------------------------------|
-----|-----|-----|-----|-----|-----|----------------------------------|
-----|-----|-----|-----|-----|-----|--5--5-5-5-5-5-5-5-5-5-5-5-5-5-5~-|
-----|-----|-----|-----|-----|-----|----------------------------------|


  W                    W                   W                  
--------------------|-------------------|-------------------||
--2~----------------|--L----------------|--L----------------||
--------------------|-------------------|-------------------||
--------------------|-------------------|-------------------||




Duration Legend
---------------
W - whole
H - half
Q - quarter
E - 8th
S - 16th
T - 32nd
X - 64th
. - note dotted
|-n-|  - n-tuplets


Tablature Legend
----------------
L - tied note
x - dead note
g - grace note
(n) - ghost note
> - accentuded note
NH - natural harmonic
AH - artificial harmonic
TH - tapped harmonic
SH - semi harmonic
PH - pitch harmonic
h - hammer on
p - pull off
b - bend
br - bendRelease
pb - preBend
pbr - preBendRelease
brb - bendReleaseBend
\n/ - tremolo bar dip
\n - tremolo bar dive
-/n - tremolo bar Release up
/n\ - tremolo bar inverted dip
/n - tremolo bar return
-\n - tremolo bar Release down
S - shift slide
s - legato slide
/ -  slide into from below or out of upwards
\ -  slide into from above or out of downwards
~ - vibrato
W - wide vibrato
tr - trill
TP - tremolo picking
T - tapping
S - slap
P - pop
< - fade in
^ - brush up
v - brush down

            
            
Suggest correction
Creating personal tab
Creating personal tab
You can edit any tab online and save it as your Personal.

You can edit, replace or remove any tab part or add personal notes – all changes will be seen only by you.

Personal tabs can be accessed anytime from any device, even offline.
Learn more »
Give kudos to tab author, rate the tab!
1 2 3 4 5
comments
print report bad tab
guest
Wanna post a correction for this tab? Suggest correction