Oops, an error
Loading. Please wait.

Fools tab

version 2
version 2

Whole song

Interactive

740 views 1 this week
no commentswrite comment
1 2 3 4 5
2 more votes to show rating
add to favorites
×
Save as Personal and add changes to this tab that will be seen only by you. Learn more ›
×
You can save this tab as Personal to edit and correct it or add notes. All changes will be seen only by you. Learn more »
launch autoscroll
font size
0
reset
how to read this tab
guitar tuner
backing track
0:00
0:00
edit
Autoscroll
slow
fast
+/-
esc
set tempo
stop
     E   H.           S S    E   H.           S S    E   Q    E   H         
E||-----------------------|-----------------------|------------------------|
B||-----------------------|-----------------------|------------------------|
G||-----------------------|-----------------------|------------------------|
D||-----------------------|-----------------------|------------------------|
A||-----------------------|-----------------------|-----------7s--4--------|
E||--4s--7------------L---|--4s--7------------L---|--4s--7-----------------|


  E   H.           S S    E   Q    E   Q.     E     E   H.           E   
-----------------------|-------------------------|----------------------|
-----------------------|-------------------------|----------------------|
-----------------------|-------------------------|----------------------|
-----------------------|-------------------------|----------------------|
--2s--4------------L---|-----------7s--4---------|----------------------|
-----------------------|--4s--7------------------|--7s--4---------------|


  E   Q    E   H           E  E   H.              E   H.           E   
------------------------|----------------------|----------------------|
------------------------|----------------------|----------------------|
------------------------|----------------------|----------------------|
------------------------|--4-------------------|----------------------|
------------------------|-----7s--4------------|----------------------|
--2s--4----7s--4--------|----------------------|--4s--7------------L--|


  W                   E  E  E  E  E  E  E  E     E  E  E  E  E  E  E  E   
-------------------|--------------------------|--------------------------|
-------------------|--------0-----------0-----|--------0-----------0-----|
-------------------|--------------------------|--------------------------|
-------------------|-----4-----4-----4-----4--|-----4-----4-----4-----4--|
-------------------|--------------------------|--------------------------|
--L----------------|--------------------------|--------------------------|


  E  S S E  E  E  S S E  E     E  S S E  E  E  S S E  E   
----------------------------|----------------------------|
-------0-0--0-------0-0--0--|-----0-0-0--0-----0-0-0--0--|
--2------------2------------|--2------------2------------|
----------------------------|----------------------------|
----------------------------|----------------------------|
----------------------------|----------------------------|


  E  E  E  E  E  E  E  E     E  E  E  E  E  E  E  E   
--------------------------|--------------------------|
--------0-----------0-----|--------0-----------0-----|
--------------------------|--------------------------|
-----4-----4-----4-----4--|-----4-----4-----4-----4--|
--------------------------|--------------------------|
--------------------------|--------------------------|


  E  E  E  E  E  E  E  E     Q    Q    Q    Q       S S E  E  E  S  S E  E  E   
--------------------------|----------------------|-----------------------------|
--------0-----------0-----|--0----0----0----0----|--0-2-2--2--2--0h-2-2--2--2--|
--------------------------|----------------------|-----------------------------|
-----4-----4-----4-----4--|----------------------|-----------------------------|
--------------------------|----------------------|-----------------------------|
--------------------------|----------------------|-----------------------------|


  E  S S E  E  E  S S E  E     E  S S E  E  E  S S E  E         
----------------------------|----------------------------|-----|
--2--2-2-2--2--2--2-2-2--2--|--0--0-0-0--0--0--0-0-0--0--|-----|
----------------------------|----------------------------|-----|
----------------------------|----------------------------|-----|
----------------------------|----------------------------|-----|
----------------------------|----------------------------|-----|


  Q    S S E  E  Q.        Q    S S E  E  Q.        Q    S S E  E  E  E  E   
------------------------|------------------------|--------------------------|
--0----0-0-0--0--0------|--0----0-0-0--0--0------|--0----0-0-0--0--0--0--0--|
------------------------|------------------------|--------------------------|
------------------------|------------------------|--------------------------|
------------------------|------------------------|--------------------------|
------------------------|------------------------|--------------------------|


  Q    S S E  E  Q.        Q    S S E  E  Q.        Q    S S E  E  Q.      
------------------------|------------------------|------------------------|
--0----0-0-0--0--0------|--0----0-0-0--0--0------|--0----0-0-0--0--0------|
------------------------|------------------------|------------------------|
------------------------|------------------------|------------------------|
------------------------|------------------------|------------------------|
------------------------|------------------------|------------------------|


  Q    S S E  E  Q.        Q    S S E  E  Q.        Q    S S E  E  Q.      
------------------------|------------------------|------------------------|
--0----0-0-0--0--0------|--0----0-0-0--0--0------|--0----0-0-0--0--0------|
------------------------|------------------------|------------------------|
------------------------|------------------------|------------------------|
------------------------|------------------------|------------------------|
------------------------|------------------------|------------------------|


                           >       >  >       >     >       >  >  >  >     
  Q    S S E  E  Q.        Q    E  E  Q    E  E     Q    E  E  E  E  Q     
------------------------|------------------------|------------------------|
--0----0-0-0--0--0------|------------------------|------------------------|
------------------------|------------------------|------------------------|
------------------------|--4-------7----------7--|----------7--2--4--4----|
------------------------|--2-------5--2-------5--|--2-------5--0--2--2----|
------------------------|-------------0----------|--0---------------------|


  >       >  >       >     >  >  >                 >       >  >       >   
  Q    E  E  Q    E  E     E  E  H        E  E     Q    E  E  Q    E  E   
------------------------|-----------------------|------------------------|
------------------------|-----------------------|------------------------|
------------------------|-----------------------|------------------------|
--4-------7----------7--|--2--4--4--------L-----|--4-------7----------7--|
--2-------5--2-------5--|--0--2--2--------L-----|--2-------5--2-------5--|
-------------0----------|-----------------------|-------------0----------|


  >       >  >  >  >       >       >  >       >     >  >  >               
  Q    E  E  E  E  Q       Q    E  E  Q    E  E     E  E  H        E  E   
------------------------|------------------------|-----------------------|
------------------------|------------------------|-----------------------|
------------------------|------------------------|-----------------------|
----------7--2--4--4----|--4-------7----------7--|--2--4--4--------L-----|
--2-------5--0--2--2----|--2-------5--2-------5--|--0--2--2--------L-----|
--0---------------------|-------------0----------|-----------------------|


  >       >  >       >     >       >  >  >  >       >       >  >       >   
  Q    E  E  Q    E  E     Q    E  E  E  E  Q       Q    E  E  Q    E  E   
------------------------|------------------------|------------------------|
------------------------|------------------------|------------------------|
------------------------|------------------------|------------------------|
--4-------7----------7--|----------7--2--4--4----|--4-------7----------7--|
--2-------5--2-------5--|--2-------5--0--2--2----|--2-------5--2-------5--|
-------------0----------|--0---------------------|-------------0----------|


  >  >  >                   >  >  >  >  >  >  >   >   
  E  E  H        S S S S    E  E  E  E  E  E  E   E   
-------------------------|---------------------------|
-------------------------|---------------------------|
-------------------------|---------------------------|
-------------------------|---------------------------|
--6--7--7----------------|---------------------------|
--4--5--5----------------|--5--4--5--6--7--8--9--10--|


  >    >   > >  >    >  >     >  >  >  >  >       >      >         \1/       
  Q    S   S E  Q    E  E     E  E  E  E  Q.      E      H         H         
---------------------------|-------------------------|----------------------|
---------------------------|-------------------------|----------------------|
---------------------------|-------------------------|----------------------|
-------------7-------------|-------------------------|----------------------|
----------------7----7--5--|--4--5--4----------------|----------------------|
--7----7h-10---------------|-----------5--7~------9--|--10~--------9--------|


  >     >                >    >   > >  >    >  >     >  >  >  >  >       >   
  Q     H.               Q    S   S E  Q    E  E     E  E  E  E  Q.      E   
----------------------|---------------------------|-------------------------|
--------5-------------|---------------------------|-------------------------|
--------7b------------|---------------------------|-------------------------|
----------------------|-------------7-------------|-------------------------|
----------------------|----------------7----7--5--|--4--5--4----------------|
--0~------------------|--7----7h-10---------------|-----------5--7~------9--|


   >         >            >             > > >     \1/               
   H         H            H.            S S E     W                 
-----------------------|-----------------------|-------------------|
-----------------------|-----------------------|-------------------|
-----------------------|--------------------7--|-------------------|
-----------------------|----------------7-9-7--|-------------------|
-----------------------|-----------------------|-------------------|
--10~--------9~--------|--0~-------------------|--0----------------|


                      >       >  >       >     >       >  >  >  >     
  W                   Q    E  E  Q    E  E     Q    E  E  E  E  Q     
-------------------|------------------------|------------------------|
-------------------|------------------------|------------------------|
-------------------|------------------------|------------------------|
-------------------|--4-------7----------7--|----------7--2--4--4----|
-------------------|--2-------5--2-------5--|--2-------5--0--2--2----|
--L----------------|-------------0----------|--0---------------------|


  >       >  >       >     >  >  >                 >       >  >       >   
  Q    E  E  Q    E  E     E  E  H        E  E     Q    E  E  Q    E  E   
------------------------|-----------------------|------------------------|
------------------------|-----------------------|------------------------|
------------------------|-----------------------|------------------------|
--4-------7----------7--|--2--4--4--------L-----|--4-------7----------7--|
--2-------5--2-------5--|--0--2--2--------L-----|--2-------5--2-------5--|
-------------0----------|-----------------------|-------------0----------|


  >       >  >  >  >       >       >  >       >     >  >  >               
  Q    E  E  E  E  Q       Q    E  E  Q    E  E     E  E  H        E  E   
------------------------|------------------------|-----------------------|
------------------------|------------------------|-----------------------|
------------------------|------------------------|-----------------------|
----------7--2--4--4----|--4-------7----------7--|--2--4--4--------L-----|
--2-------5--0--2--2----|--2-------5--2-------5--|--0--2--2--------L-----|
--0---------------------|-------------0----------|-----------------------|


  >       >  >       >     >       >  >  >  >       >       >  >       >   
  Q    E  E  Q    E  E     Q    E  E  E  E  Q       Q    E  E  Q    E  E   
------------------------|------------------------|------------------------|
------------------------|------------------------|------------------------|
------------------------|------------------------|------------------------|
--4-------7----------7--|----------7--2--4--4----|--4-------7----------7--|
--2-------5--2-------5--|--2-------5--0--2--2----|--2-------5--2-------5--|
-------------0----------|--0---------------------|-------------0----------|


  >  >  >                   >  >  >  >  >  >  >   >   
  E  E  H        S S S S    E  E  E  E  E  E  E   E   
-------------------------|---------------------------|
-------------------------|---------------------------|
-------------------------|---------------------------|
-------------------------|---------------------------|
--6--7--7----------------|---------------------------|
--4--5--5----------------|--5--4--5--6--7--8--9--10--|


  >    >   > >  >    >  >     >  >  >  >  >       >      >         \1/       
  Q    S   S E  Q    E  E     E  E  E  E  Q.      E      H         H         
---------------------------|-------------------------|----------------------|
---------------------------|-------------------------|----------------------|
---------------------------|-------------------------|----------------------|
-------------7-------------|-------------------------|----------------------|
----------------7----7--5--|--4--5--4----------------|----------------------|
--7----7h-10---------------|-----------5--7~------9--|--10~--------9--------|


  >     >     >     >         >    >  >  >    >  >     >  >  >  >  >       >   
  Q     Q     Q     Q         Q    E  E  Q    E  E     E  E  E  E  Q.      E   
---------------------------|------------------------|-------------------------|
---------------------------|------------------------|-------------------------|
---------------------------|------------------------|-------------------------|
---------------------------|------------------------|-------------------------|
---------------------------|----------5--7----7--5--|--4--5--4----------------|
--0~----2~----3~----5b~----|--7----7----------------|-----------5--7~------9--|


   >         >            \1/                                    
   H         H            W                    W                 
-----------------------|-------------------|--------------------|
-----------------------|-------------------|--------------------|
-----------------------|-------------------|--------------------|
-----------------------|-------------------|--------------------|
-----------------------|-------------------|--------------------|
--10~--------9~--------|--0----------------|---L----------------|


  W                                                                             
-------------------|-------------------|-------------------|-------------------|
-------------------|-------------------|-------------------|-------------------|
-------------------|-------------------|-------------------|-------------------|
-------------------|-------------------|-------------------|-------------------|
-------------------|-------------------|-------------------|-------------------|
--L----------------|-------------------|-------------------|-------------------|


                                          <        <    <       
                                          Q.     S Q    Q    S  
-------------------|-------------------|-----------------------|
-------------------|-------------------|-----------------------|
-------------------|-------------------|-----------------------|
-------------------|-------------------|-----------4----5------|
-------------------|-------------------|--7------L-------------|
-------------------|-------------------|-----------------------|


  <        <    <         <        <    <         <                 
  Q.     S Q    Q    S    Q.     S Q    Q    S    W                 
-----------------------|-----------------------|-------------------|
-----------------------|-----------------------|-------------------|
-----------------------|-----------------------|-------------------|
--7------L-5----4------|-----------------------|-------------------|
-----------------------|--5------L-7----9------|--7----------------|
-----------------------|-----------------------|-------------------|


                      <        <    <         <        <           
  W                   Q.     S Q    Q    S    Q.     S H        S  
-------------------|-----------------------|----------------------|
-------------------|-----------------------|----------------------|
-------------------|-----------------------|----------------------|
-------------------|-----------4----5------|--7------L------------|
--L----------------|--7------L-------------|-----------5----------|
-------------------|-----------------------|----------------------|


  <   <    <    <         <                                      
  E.  Q    Q    Q    S    W                    W                 
-----------------------|--------------------|-------------------|
-----------------------|--------------------|-------------------|
-----------------------|--------------------|-------------------|
--9---7----5----7------|--------------------|-------------------|
-----------------------|--5~----------------|--L----------------|
-----------------------|--------------------|-------------------|


  <        <    <         <        <             <   <    <    <       
  Q.     S Q    Q    S    Q.     S H        S    E.  Q    Q    Q    S  
-----------------------|----------------------|-----------------------|
-----------------------|----------------------|-----------------------|
-----------------------|----------------------|-----------------------|
-----------------------|-----------4----------|--2--------------------|
--5------L-7----5------|----------------------|------5----4----5------|
-----------------------|--5------L------------|-----------------------|


  <                                        <        <    <       
  W                    W                   Q.     S Q    Q    S  
--------------------|-------------------|-----------------------|
--------------------|-------------------|--5------L-7-----------|
--------------------|-------------------|----------------7------|
--------------------|-------------------|-----------------------|
--2~----------------|--L----------------|--L--------------------|
--------------------|-------------------|-----------------------|


  <        <    <         <        <    <         <                  
  Q.     S Q    Q    S    Q.     S Q    Q    S    W                  
-----------------------|-----------------------|--------------------|
--5------L-7-----------|--5------L-------------|--------------------|
----------------7------|-----------7----6------|--------------------|
-----------------------|-----------------------|--7~----------------|
-----------------------|-----------------------|--------------------|
-----------------------|-----------------------|--------------------|


                      <        <    <         <   <    <    <       
  W                   Q.     S Q    Q    S    E.  Q    Q    Q    S  
-------------------|-----------------------|-----------------------|
-------------------|-----------------------|-----------------------|
-------------------|-----------4----6------|------7----6-----------|
--L----------------|--7------L-------------|--4-------------6------|
-------------------|-----------------------|-----------------------|
-------------------|-----------------------|-----------------------|


  <   <  <  <    <         <        <             <                 
  E.  E  E  Q    Q    S    Q.     S H        S    W                 
------------------------|----------------------|-------------------|
------5-----------------|----------------------|-------------------|
---------7--6----4------|-----------4----------|--4----------------|
--7---------------------|--7------L------------|-------------------|
------------------------|----------------------|-------------------|
------------------------|----------------------|-------------------|


                      <        <    <         <        <    <       
  W                   Q.     S Q    Q    S    Q.     S Q    Q    S  
-------------------|-----------------------|-----------------------|
-------------------|-----------------------|-----------------------|
--L----------------|-----------------------|-----------------------|
-------------------|----------------0------|-----------2----0------|
-------------------|--2------L-3-----------|-----------------------|
-------------------|-----------------------|--3------L-------------|


  <        <             <                                     
  Q.     S H        S    W                   W                 
----------------------|-------------------|-------------------|
----------------------|-------------------|-------------------|
----------------------|-------------------|-------------------|
----------------------|-------------------|-------------------|
--2------L-0----------|-------------------|-------------------|
----------------------|--3----------------|--L----------------|


  <        <    <         <        <             <   <    <    <       
  Q.     S Q    Q    S    Q.     S H        S    E.  Q    Q    Q    S  
-----------------------|----------------------|-----------------------|
-----------------------|----------------------|-----------------------|
-----------------------|----------------------|--7---5----4-----------|
--2------L-4----5------|--7------L-0----------|----------------5------|
-----------------------|----------------------|-----------------------|
-----------------------|----------------------|-----------------------|


  <                                       <        <    <       
  W                   W                   Q.     S Q    Q    S  
-------------------|-------------------|-----------------------|
-------------------|-------------------|-----------------------|
-------------------|-------------------|-----------4----5------|
--7----------------|--L----------------|--7------L-------------|
-------------------|-------------------|-----------------------|
-------------------|-------------------|-----------------------|


  <        <             <   <    <    <         <                 
  Q.     S H        S    E.  Q    Q    Q    S    W                 
----------------------|-----------------------|-------------------|
----------------------|-----------------------|-------------------|
--7------L------------|-----------------------|-------------------|
-----------4----------|--7---4----5----2------|--0----------------|
----------------------|-----------------------|-------------------|
----------------------|-----------------------|-------------------|


                      <        <             <                 
  W                   Q.     S H        S    W                 
-------------------|----------------------|-------------------|
-------------------|----------------------|-------------------|
-------------------|----------------------|-------------------|
--L----------------|--0------L-2----------|--2----------------|
-------------------|----------------------|-------------------|
-------------------|----------------------|-------------------|


                                          >       >  >       >   
                                          Q    E  E  Q    E  E   
-------------------|-------------------|------------------------|
-------------------|-------------------|------------------------|
-------------------|-------------------|------------------------|
-------------------|-------------------|--4-------7----------7--|
-------------------|-------------------|--2-------5--2-------5--|
-------------------|-------------------|-------------0----------|


  >       >  >  >  >       >       >  >       >     >  >  >               
  Q    E  E  E  E  Q       Q    E  E  Q    E  E     E  E  H        E  E   
------------------------|------------------------|-----------------------|
------------------------|------------------------|-----------------------|
------------------------|------------------------|-----------------------|
----------7--2--4--4----|--4-------7----------7--|--2--4--4--------L-----|
--2-------5--0--2--2----|--2-------5--2-------5--|--0--2--2--------L-----|
--0---------------------|-------------0----------|-----------------------|


  >       >  >       >     >       >  >  >  >       >       >  >       >   
  Q    E  E  Q    E  E     Q    E  E  E  E  Q       Q    E  E  Q    E  E   
------------------------|------------------------|------------------------|
------------------------|------------------------|------------------------|
------------------------|------------------------|------------------------|
--4-------7----------7--|----------7--2--4--4----|--4-------7----------7--|
--2-------5--2-------5--|--2-------5--0--2--2----|--2-------5--2-------5--|
-------------0----------|--0---------------------|-------------0----------|


  >  >  >                 >       >  >       >     >       >  >  >  >     
  E  E  H        E  E     Q    E  E  Q    E  E     Q    E  E  E  E  Q     
-----------------------|------------------------|------------------------|
-----------------------|------------------------|------------------------|
-----------------------|------------------------|------------------------|
--2--4--4--------L-----|--4-------7----------7--|----------7--2--4--4----|
--0--2--2--------L-----|--2-------5--2-------5--|--2-------5--0--2--2----|
-----------------------|-------------0----------|--0---------------------|


  >       >  >       >     >  >  >                   >  >  >  >  >  >  >   >   
  Q    E  E  Q    E  E     E  E  H        S S S S    E  E  E  E  E  E  E   E   
------------------------|-------------------------|---------------------------|
------------------------|-------------------------|---------------------------|
------------------------|-------------------------|---------------------------|
--4-------7----------7--|-------------------------|---------------------------|
--2-------5--2-------5--|--6--7--7----------------|---------------------------|
-------------0----------|--4--5--5----------------|--5--4--5--6--7--8--9--10--|


  >    >   > >  >    >  >     >  >  >  >  >       >      >         \1/       
  Q    S   S E  Q    E  E     E  E  E  E  Q.      E      H         H         
---------------------------|-------------------------|----------------------|
---------------------------|-------------------------|----------------------|
---------------------------|-------------------------|----------------------|
-------------7-------------|-------------------------|----------------------|
----------------7----7--5--|--4--5--4----------------|----------------------|
--7----7h-10---------------|-----------5--7~------9--|--10~--------9--------|


  >     >      >      >         >         >    >  >     >  >  >  >  >       >   
  Q     Q      Q      Q         H         Q    E  E     E  E  E  E  Q.      E   
----------------------------|------------------------|-------------------------|
--------7------9-----10-----|--12--------------------|-------------------------|
--------9b----11b----12b----|--14b-------------------|-------------------------|
----------------------------|------------------------|-------------------------|
----------------------------|-------------7----7--5--|--4--5--4----------------|
--0~------------------------|------------------------|-----------5--7~------9--|


   >         >            >             > > >     \1/               
   H         H            H.            S S E     W                 
-----------------------|-----------------------|-------------------|
-----------------------|-----------------------|-------------------|
-----------------------|--------------------7--|-------------------|
-----------------------|----------------7-9-7--|-------------------|
-----------------------|-----------------------|-------------------|
--10~--------9~--------|--0~-------------------|--0----------------|


                          \1/                   >                  
  H.           S S E      W                     W                  
----------------------|---------------------|---------------------|
----------------------|---------------------|---------------------|
---------------7-9-7--|---------------------|---------------------|
---------------7-9-7--|---------------------|---------------------|
----------------------|---------------------|--12b----------------|
--L------------L------|--10b----------------|---L-----------------|


  >         >           >             > > >      >                  
  H         H           H.            S S E      W                  
---------------------|-----------------------|---------------------|
---------------------|-----------------------|--17-----------------|
---------------------|--------------------7--|--19b----------------|
---------------------|----------------7-9-7--|---------------------|
---------------------|-----------------------|---------------------|
--3b--------3--------|--0~-------------------|---------------------|


  \1/                 >                                       
  W                   W                    W                  
-------------------|--------------------|--------------------|
-------------------|--------------------|--0~----------------|
-------------------|--------------------|--0-----------------|
-------------------|--------------------|--0-----------------|
-------------------|--0-----------------|--------------------|
--0----------------|--0~----------------|--L-----------------|


  >              > > >     \1/                                   
  H.             S S E     W                   W                 
------------------------|-------------------|-------------------|
------------------------|-------------------|-------------------|
---------------------7--|-------------------|-------------------|
-----------------7-9-7--|-------------------|-------------------|
--5b~-------------------|-------------------|-------------------|
------------------------|--0----------------|--L----------------|


-------------------|-------------------|-------------------|
-------------------|-------------------|-------------------|
-------------------|-------------------|-------------------|
-------------------|-------------------|-------------------|
-------------------|-------------------|-------------------|
-------------------|-------------------|-------------------|


-------------------||
-------------------||
-------------------||
-------------------||
-------------------||
-------------------||




Duration Legend
---------------
W - whole
H - half
Q - quarter
E - 8th
S - 16th
T - 32nd
X - 64th
. - note dotted
|-n-|  - n-tuplets


Tablature Legend
----------------
L - tied note
x - dead note
g - grace note
(n) - ghost note
> - accentuded note
NH - natural harmonic
AH - artificial harmonic
TH - tapped harmonic
SH - semi harmonic
PH - pitch harmonic
h - hammer on
p - pull off
b - bend
br - bendRelease
pb - preBend
pbr - preBendRelease
brb - bendReleaseBend
\n/ - tremolo bar dip
\n - tremolo bar dive
-/n - tremolo bar Release up
/n\ - tremolo bar inverted dip
/n - tremolo bar return
-\n - tremolo bar Release down
S - shift slide
s - legato slide
/ -  slide into from below or out of upwards
\ -  slide into from above or out of downwards
~ - vibrato
W - wide vibrato
tr - trill
TP - tremolo picking
T - tapping
S - slap
P - pop
< - fade in
^ - brush up
v - brush down

            
            
Suggest correction
Creating personal tab
Creating personal tab
You can edit any tab online and save it as your Personal.

You can edit, replace or remove any tab part or add personal notes – all changes will be seen only by you.

Personal tabs can be accessed anytime from any device, even offline.
Learn more »
Give kudos to tab author, rate the tab!
1 2 3 4 5
comments
print report bad tab
guest
Wanna post a correction for this tab? Suggest correction