Oops, an error
Loading. Please wait.
We have an official Highway Star tab made by UG professional guitarists. Check out the tab »
×
16,403 views 69 this week
1 commentread comment
1 2 3 4 5
x 12
add to favorites
×
Save as Personal and add changes to this tab that will be seen only by you. Learn more ›
×
You can save this tab as Personal to edit and correct it or add notes. All changes will be seen only by you. Learn more »
launch autoscroll
font size
0
reset
guitar tuner
backing track
0:00
0:00
edit
Autoscroll
slow
fast
+/-
esc
set tempo
stop
Author
Unregistered
Deep Purple - Highway Star
Standard Tuning

[Intro]
  4/4
G|---------------------------------------------------------------55/|
D|-5-555-555-555-555-555-555-555-555-555-555-555-555-555-555-555----|
A|------------------------------------------------------------------|
E|------------------------------------------------------------------|

G|-12---12-12-12---12-12-12---12-12-12---12-12-12---12-12-12---12-12-|
D|-------------------------------------------------------------------|
A|-------------------------------------------------------------------|
E|-------------------------------------------------------------------|

G|-12---12-12-12---12-12-12---12-12-12---12-12-12---12-12-|
D|--------------------------------------------------------|
A|--------------------------------------------------------|
E|--------------------------------------------------------|

G|-10-10----------------------------------|
D|-------12-12-10h11h12-12-10-10-8-8------|
A|-----------------------------------10-8\|
E|----------------------------------------|

G|-----------------|-----------------|-----------------|-----------------|
D|-5-5-5-5-5-5-5-5-|-5-5-5-5-5-5-5-5-|-5-5-5-5-5-5-5-5-|-5-5-5-5-5-5-5-5-|
A|-----------------|-----------------|-----------------|-----------------|
E|-----------------|-----------------|-----------------|-----------------|

G|-----------------|-----------------|-----------------|-----------------|
D|-5-5-5-5-5-5-5-5-|-5-5-5-5-5-5-5-5-|-5-5-5-5-5-5-5-5-|-5-5-5-5-5-5-5-5-|
A|-----------------|-----------------|-----------------|-----------------|
E|-----------------|-----------------|-----------------|-----------------|

G|-----------------|-----------------|-----------------|-----------------|
D|-5-5-5-5-5-5-5-5-|-5-5-5-5-5-5-5-5-|-5-5-5-5-5-5-5-5-|-5-5-5-5-5-5-5-5-|
A|-----------------|-----------------|-----------------|-----------------|
E|-----------------|-----------------|-----------------|-----------------|

G|-----------------|-----------------|-----------------|-----------------|
D|-5-5-5-5-5-5-5-5-|-5-5-5-5-5-5-5-5-|-5-5-5-5-5-5-5-5-|-----------------|
A|-----------------|-----------------|-----------------|-3-------1-------|
E|-----------------|-----------------|-----------------|-----------------|

[Verse]
G|-----------------|-----------------|-----------------|-----------------|
D|-5-5-5-5-5-5-5-5-|-5-5-5-5-5-5-5-5-|-5-5-5-5-5-3-----|-----------------|
A|-----------------|-----------------|-------------5-3-|-1-----3-----1---|
E|-----------------|-----------------|-----------------|-----3-----3-----|

G|-----------------|-----------------|-----------------|-----------------|
D|/5-5-5-5-5-5-5-5-|-5-5-5-5-3---3-4-|-5-5-5-5-5-3-----|-----------------|
A|-----------------|-----------5-----|-------------5-3-|-1-----3-----1---|
E|-----------------|-----------------|-----------------|-----3-----3-----|

G|-----------------|-----------------|-----------------|-----------------|
D|-3-3-3-3-3-3-3-3-|-3---------0-1-2-|-3-3-3-3-3-------|-3---3---2---1---|
A|-----------------|---0-1-2-3-------|-----------0-1-3-|-----------------|
E|-----------------|-----------------|-----------------|-----------------|

G|-----------------|-----------------|-----7-5---------|-----------------|
D|-------------3---|-5-3---------3-5-|-5/7-----7-5-6-7-|-6-5-3-------3---|
A|-5-5-5-5-3-5---5-|-----5-3-4-5-----|-----------------|-------5-3-5---0-|
E|-----------------|-----------------|-----------------|-----------------|

[Chorus]
G|-----------------|-----------------|-----------------|-----------------|
D|-----------------|-----------------|-----------------|---5-7-----5-7---|
A|---0-4-0-5-0-7-0-|---0-4-0-5-0-7-0-|---0-4-0-5-0-7-0-|-------0-------0-|
E|-----------------|-----------------|-----------------|-----------------|

G|-----------------|-----------------|-----------------|-----------------|
D|-----------------|-----------------|---5-------7-----|---5-------7-----|
A|---0-4-0-5-0-7-0-|---0-4-0-5-0-7-3-|-----3-5-----5-3-|-----3-5-----5-3-|
E|-----------------|-----------------|-----------------|-----------------|

G|-----------------|---------------------|
D|---5-------7-----|---10-------12-------|
A|-----3-5-----5-8-|------8-10-----10-12-|
E|-----------------|---------------------|

G|-----------------|-----------------|-----------------|-----------------|
D|-----------------|-----------------|-----------------|-----------------|
A|-----------------|-----------------|-----------------|-3-------1-------|
E|-----------------|-----------------|-----------------|-----------------|

[Verse]
G|-----------------|-----------------|-----------------|-----------------|
D|-5-5-5-5-5-5-5-5-|-5-5-5-5-5-5-3-4-|-5-5-5-5-5-3-----|-----------------|
A|-----------------|-----------------|-------------5-3-|-1-----3-----1---|
E|-----------------|-----------------|-----------------|-----3-----3-----|

G|-----------------|-----------------|-----------------|-----------------|
D|/5-5-5-5-5-5-5-5-|-5-5-5-5-5-5-3-4-|-5-5-5-5-5-3-----|-----------------|
A|-----------------|-----------------|-------------5-3-|-1-----3-----1---|
E|-----------------|-----------------|-----------------|-----3-----3-----|

G|-----------------|-----------------|-----------------|-----------------|
D|-3-3-3-3-3-3-3-3-|-3---------0-1-2-|-3-3-3-3-3-------|-3---3---2---1---|
A|-----------------|---0-1-2-3-------|-----------0-1-3-|-----------------|
E|-----------------|-----------------|-----------------|-----------------|

G|-----------------|-----------------|-----7-5---------|-5---7-5---------|
D|-------------3---|-5-3---------3-5-|-5/7-----7-5-6-7-|---7-----7-5-3---|
A|-5-5-5-5-3-5---5-|-----5-3-4-5-----|-----------------|---------------0-|
E|-----------------|-----------------|-----------------|-----------------|

[Chorus]
G|-----------------|-----------------|-----------------|-----------------|
D|-----------------|-----------------|-----------------|---5-7-----5-7---|
A|---0-4-0-5-0-7-0-|---0-4-0-5-0-7-0-|---0-4-0-5-0-7-0-|-------0-------0-|
E|-----------------|-----------------|-----------------|-----------------|

G|-----------------|-----------------|-----------------|-----------------|
D|-----------------|-----------------|---5-------7-----|---5-------7-----|
A|---0-4-0-5-0-7-0-|---0-4-0-5-0-7-3-|-----3-5-----5-3-|-----3-5-----5-3-|
E|-----------------|-----------------|-----------------|-----------------|

G|-----------------|---------------------|
D|---5-------7-----|---10-------12-------|
A|-----3-5-----5-8-|------8-10-----10-12-|
E|-----------------|---------------------|

G|-----------------|-----------------|-----------------|-----------------|
D|-----------------|-----------------|-----------------|-----------------|
A|-----------------|-----------------|-----------------|-----------------|
E|-----------------|-----------------|-----------------|-----------------|

[Organ Solo]
G|-----------------|-----------------|-----------------|-----------------|
D|-----------------|-----------------|-----------------|-----------------|
A|-5-5-5-5-5-5-5-5-|-5-5-5-5-5-5-5-5-|-5-5-5-5-5-5-5-5-|-5-5-5-5-5-5-5-5-|
E|-----------------|-----------------|-----------------|-----------------|

G|-----------------|-----------------|-----------------|-----------------|
D|-----------------|-----------------|-----------------|-----------------|
A|-5-5-5-5-5-5-5-5-|-5-5-5-5-5-5-5-5-|-5-5-5-5-5-5-5-5-|-5-5-5-5-5-5-5-5-|
E|-----------------|-----------------|-----------------|-----------------|

G|-----------------|-----------------|-----------------|-----------------|
D|-----------------|-----------------|-----------------|-------4-----4-5-|
A|-5-5-5-5-5-5-5-5-|-5-5-5-5-5-5-5-5-|-5-5-5-5-5-5-5-5-|-5-5-5-----5-----|
E|-----------------|-----------------|-----------------|-----------------|

G|-----------------|-----------------|-----------------|-----------------|
D|-7-7-7-7-7-7-7-7-|-6-6-6-6-6-6-6-6-|-5-5-5-5-5-5-5-5-|-4-4-4-4-4-4-5-6-|
A|-----------------|-----------------|-----------------|-----------------|
E|-----------------|-----------------|-----------------|-----------------|

G|-----------------|-----------------|-----------------|-----------------|
D|-7-7-7-7-7-7-7-7-|-6-6-6-6-6-6-6-6-|-5-5-5-5-5-5-5-5-|-4-4-4-4-4-4-4-4-|
A|-----------------|-----------------|-----------------|-----------------|
E|-----------------|-----------------|-----------------|-----------------|

G|-----------------|-----------------|-----------------|-----------------|
D|-3-3-3-3-3-3-3-3-|-3-3-3-3-3-------|-----------------|-----------------|
A|-----------------|-----------0-1-3-|-5-5-5-5-5-5-5-5-|-5-5-5-5-5-5-5-5-|
E|-----------------|-----------------|-----------------|-----------------|

G|-----------------|-----------------|-----------------|-----------------|
D|-----------------|-----------------|-----------------|-----------------|
A|-----------------|-----------------|-----------------|-----------------|
E|-5-5-5-5-5-5-5-5-|-5-5-5-5-5-5-5-5-|-5-5-5-5-5-5-5-5-|-5-5-5-5-5-5-5-5-|

G|-----------------|-----------------|-----------------|-----------------|
D|---------------7-|---------------7-|---------------7-|-0---------------|
A|------------/7---|------------/7---|------------/7---|------------78-8-|
E|-5-5-5-5-5-5-----|---5-5-5-5-5-----|---5-5-5-5-5-----|---5-5-5-5-5-----|

G|-----------------|-----------------|-----------------|-----------------|
D|-----------------|-3---0-5---0-3---|-----------------|-3---0-5---0-3---|
A|-5-5-5-5-5-5-5-5-|-----------------|-5-5-5-5-5-5-5-5-|-----------------|
E|-----------------|-----------------|-----------------|-----------------|

G|-----------------|-----------------|-----------------|-----------------|
D|-----------------|-3---0-5---0-3---|-----------------|-3---0-5---0-3---|
A|-5-5-5-5-5-5-5-5-|-----------------|-5-5-5-5-5-5-5-5-|-----------------|
E|-----------------|-----------------|-----------------|-----------------|

G|-----------------|---5---5-7-------|-----------------|---------7-5-----|
D|-------3---5---7-|-----------------|-----------------|---------------7-|
A|-3-5-------------|-----------------|-----------------|-----------------|
E|-----------------|-----------------|-----------------|-----------------|

G|-----------------|-----------------|-----------------|-----------------|
D|---6---5---3-----|-----------------|-----------------|-----------------|
A|-------------5---|-3---------------|-----------------|-3-------1-------|
E|-----------------|-----------------|-----------------|-----------------|

[Verse]
G|-----------------|-----------------|-----------------|-----------------|
D|-5-5-5-5-5-5-5-5-|-5-5-5-5-5-5-3-4-|-5-5-5-5-5-3-----|-----------------|
A|-----------------|-----------------|-------------5-3-|-1-----3-----1---|
E|-----------------|-----------------|-----------------|-----3-----3-----|

G|-----------------|-----------------|-----------------|-----------------|
D|/5-5-5-5-5-5-5-5-|-5-5-5-5-3---3-4-|-5-5-5-5-5-3-----|-----------------|
A|-----------------|-----------5-----|-------------5-3-|-1-----3-----1---|
E|-----------------|-----------------|-----------------|-----3-----3-----|

G|-----------------|-----------------|-----------------|-----------------|
D|-3-3-3-3-3-3-3-3-|-3---------0-1-2-|-3-3-3-3-3-------|-3---3---2---1---|
A|-----------------|---0-1-2-3-------|-----------0-1-3-|-----------------|
E|-----------------|-----------------|-----------------|-----------------|

G|-----------------|-----------------|-----7-5----/9-7-|-5---------------|
D|-------------3---|-5-3---------3-5-|-5/7-----7-5-----|---7-5-3---------|
A|-5-5-5-5-3-5---5-|-----5-3-4-5-----|-----------------|---------5-3-5-0-|
E|-----------------|-----------------|-----------------|-----------------|

[Chorus]
G|-----------------|-----------------|-----------------|-----------------|
D|-----------------|-----------------|-----------------|---5-7-----5-7---|
A|---0-4-0-5-0-7-0-|---0-4-0-5-0-7-0-|---0-4-0-5-0-7-0-|-------0-------0-|
E|-----------------|-----------------|-----------------|-----------------|

G|-----------------|-----------------|-----------------|-----------------|
D|-----------------|-----------------|---5-------7-----|---5-------7-----|
A|---0-4-0-5-0-7-0-|---0-4-0-5-0-7-3-|-----3-5-----5-3-|-----3-5-----5-3-|
E|-----------------|-----------------|-----------------|-----------------|

G|-----------------|---------------------|
D|---5-------7-----|---10-------12-------|
A|-----3-5-----5-8-|------8-10-----10-12-|
E|-----------------|---------------------|

G|-----------------|-----------------|-----------------|-----------------|
D|-----------------|-----------------|-----------------|-----------------|
A|-----------------|-----------------|-----------------|-----------------|
E|-----------------|-----------------|-----------------|-----------------|

[Guitar Solo]
G|-----------------|-----------------|-----------------|-----------------|
D|-----------------|-----------------|-----------------|-----------------|
A|-5-5-5-5-5-5-5-5-|-5-5-5-5-5-5-5-5-|-5-5-5-5-5-5-5-5-|-5-5-5-5-5-5-5-5-|
E|-----------------|-----------------|-----------------|-----------------|

G|-----------------|-----------------|-----------------|-----------------|
D|-----------------|-----------------|-----------------|-----------------|
A|-5-5-5-5-5-5-5-5-|-5-5-5-5-5-5-5-5-|-5-5-5-5-5-5-5-5-|-5-5-5-5-3-3-2-2-|
E|-----------------|-----------------|-----------------|-----------------|

G|-----------------|-----------------|-----------------|-----------------|
D|-----------------|-----------------|-----------------|-----------------|
A|-----------------|-----------------|-----------------|-----------------|
E|-5-5-5-5-5-5-5-5-|-5-5-5-5-5-5-5-5-|-5-5-5-5-5-5-5-5-|-5-5-5-5-5-5-5-5-|

G|-----------------|-----------------|-----------------|-----------------|
D|---------------7-|---------------7-|---------------7-|-----------------|
A|------------/7---|------------/7---|------------/7---|-------------3-4-|
E|-5-5-5-5-5-5-----|-5-5-5-5-5-5-----|-5-5-5-5-5-5-----|-5-5-5-5-5-5-----|

G|-----------------|-----------------|-----------------|-----------------|
D|-----------------|-------------3-4-|-5-5-5-5-5-5-5-5-|h5-5-5-5-5-3-----|
A|-5-5-5-5-5-5-5-5-|-5-5-5-5-5-5-----|-----------------|-------------5-4-|
E|-----------------|-----------------|-----------------|-----------------|

G|-----------------|-----------------|-----------------|-----------------|
D|-----------------|-----------2-3-5-|-----------------|---7-5-----------|
A|-3-3-3-3-3-3-3-3-|h3-3-3-3-3-------|-----------------|-------7-5-4---3-|
E|-----------------|-----------------|-5-5-5-5-5-5-5-5-|-5-----------5---|

G|-----------------|-----------------|-----------------|------------------|
D|-----------------|-------------3-4-|-5-5-5-5-5-5-5-5-|h5-5-5-5-5-3-h2---|
A|-5-5-5-5-5-5-5-5-|-5-5-5-5-5-5-----|-----------------|----------------5-|
E|-----------------|-----------------|-----------------|------------------|

G|-----------------|-5-3-------------|-----------------|-----------------|
D|-----------------|-----5-3-2-------|-----------------|-----4-5-6-7-5-4-|
A|-3-3-3-3-3-3-3-3-|-----------3-2-3-|-------------4-5-|-6-7-------------|
E|-----------------|-----------------|-5-5-5-5-5-5-----|-----------------|

G|-----------------|----------/7-5---|-----------------|-----------------|
D|-----------------|---------------7-|-5-5-5-5-5-5-5-5-|-5---------------|
A|-5-5-5-5-5-5-5-5-|-5-5-5-5-5-------|-----------------|---2---3---4---5-|
E|-----------------|-----------------|-----------------|-----------------|

G|-----------------|-----------------|-----------------|-----------------|
D|-----------------|-----------------|-----------------|---7-5-----------|
A|-3-3-3-3-3-3-3-3-|-3-3-3-3-3-3-2-1-|-----------------|-------7-5-3---3-|
E|-----------------|-----------------|-5-5-5-5-5-5-5-5-|-5-----------5---|

G|-----------------|----------/7-5---|-----------------|-----------------|
D|-----------------|---------------7-|-5-5-5-5-5-5-5-5-|-----------------|
A|-5-5-5-5-5-5-5-5-|-5-5-5-5-5-------|-----------------|-------------1-2-|
E|-----------------|-----------------|-----------------|-3-3-4-4-5-5-----|

G|-----------------|-----------------|-----------------|-----------------|
D|-----------------|-----------2-3-5-|-----------------|-----------------|
A|-3-3-3-3-3-3-3-3-|-3-3-3-3-3-------|-----------------|-----------------|
E|-----------------|-----------------|-5-5-5-5-5-5-5-5-|-5-5-5-5-5-5-5-5-|

G|-----------------|-----------------|-----------------|-----------------|
D|-----------------|-----------------|-----------------|-----------------|
A|-----------------|-----------------|-----------------|-----------------|
E|-5-5-5-5-5-5-5-5-|-5-5-5-5-5-5-5-5-|-5-5-5-5-5-5-5-5-|-5-5-5-5-5-5-5-5-|

G|-----------------|-----------------|-----------------|-----------------|
D|-----------------|-----------------|-----------------|-----------------|
A|-----------------|-----------------|-----------------|-----------------|
E|-5-5-5-5-5-5-5-5-|-5-5-5-5-5-5-5-5-|-5-5-5-5-5-5-5-5-|-5-5-5-5-5-5-5-5-|

G|-----------------|
D|-----------------|
A|-3-------1-------|
E|-----------------|

[Verse]
G|-----------------|-----------------|-----------------|-----------------|
D|-5-5-5-5-5-5-5-5-|-5-5-5-5-3---3-4-|-5-5-5-5-5-3-----|-----------------|
A|-----------------|-----------5-----|-------------5-3-|-1-----3-----1---|
E|-----------------|-----------------|-----------------|-----3-----3-----|

G|-----------------|-------------3---|-----------------|-----------------|
D|/5-5-5-5-5-5-5-5-|-5-5-5-5-3-----3-|-5-5-5-5-5-3-----|-----------------|
A|-----------------|-----------5-----|-------------5-3-|-1-----3-----1---|
E|-----------------|-----------------|-----------------|-----3-----3-----|

G|-----------------|-----------------|-----------------|-----------------|
D|-3-3-3-3-3-3-3-3-|-3---------0-1-2-|-3-3-3-3-3-------|-3---3---2---1---|
A|-----------------|---0-1-2-3-------|-----------0-1-3-|-----------------|
E|-----------------|-----------------|-----------------|-----------------|

G|-----------------|-----------------|-----7-5---------|-5--/9-7-5-------|
D|-------------3---|-5-3---------3-5-|-5/7-----7-5-6-7-|---7-------7-5---|
A|-5-5-5-5-3-5---5-|-----5-3-4-5-----|-----------------|---------------0-|
E|-----------------|-----------------|-----------------|-----------------|

[Chorus]
G|-----------------|-----------------|-----------------|-----------------|
D|-----------------|-----------------|-----------------|---5-7-----5-7---|
A|---0-4-0-5-0-7-0-|---0-4-0-5-0-7-0-|---0-4-0-5-0-7-0-|-------0-------0-|
E|-----------------|-----------------|-----------------|-----------------|

G|-----------------|-----------------|-----------------|-----------------|
D|-----------------|-----------------|---5-------7-----|---5-------7-----|
A|---0-4-0-5-0-7-0-|---0-4-0-5-0-7-3-|-----3-5-----5-3-|-----3-5-----5-3-|
E|-----------------|-----------------|-----------------|-----------------|

                                          2/4
G|-----------------|---------------------|-----------|
D|---5-------7-----|---10-------12-------|---14------|
A|-----3-5-----5-8-|------8-10-----10-12-|------12-3-|
E|-----------------|---------------------|-----------|

  4/4                                     2/4
G|-----------------|---------------------|-----------|
D|---5-------7-----|---10-------12-------|---14------|
A|-----3-5-----5-8-|------8-10-----10-12-|------12-3-|
E|-----------------|---------------------|-----------|

  4/4
G|-----------------|---------------------|
D|---5-------7-----|---10-------12-------|
A|-----3-5-----5-8-|------8-10-----10-12-|
E|-----------------|---------------------|

[Outro]
G|---------------------------12---------17----14-----|
D|------------12-------14----------------------------|
A|-12------------------------------------------------|
E|---------------------------------------------------|
Tremolo Picking

G|-12h14-14-14-14-12h14-14-12-12---------------------|
D|-------------------------------14-14-12--10--------|
A|--------------------------------------------12-----|
E|---------------------------------------------------|

G|------------------------------------------|
D|------------------------------------------|
A|-12-----10--------------------------------|
E|----------------8--------10----5----------|
Tremolo Picking

G|---------5/6-5----/9--7-5----------------|
D|-----5-7-------7-5--------7-5-------7\\\-|
A|-5-7----------------------------7--------|
E|-----------------------------------------|

************************************

| /  Slide up
| h  Hammer-on
| \  Slide down

************************************

            
            
Suggest correction
Creating personal tab
Creating personal tab
You can edit any tab online and save it as your Personal.

You can edit, replace or remove any tab part or add personal notes – all changes will be seen only by you.

Personal tabs can be accessed anytime from any device, even offline.
Learn more »
comments
print report bad tab
1 comment total.
0 reply
Zainek 10 Jan 27, 2015 05:23 AM

This tab is awesome and I love it. I play this and listen to the bass track that can be found on youtube and I've noticed one thing that is consistent will not only this tab but all the one's I have seen and thats the chorus part (after the 0-4-0-5-0-7-0).
Try playing
|-----------------|-----------------|-----------------|
|-----5-------7---|-----5-------7---|-----5-------7---|
|---3---3---5---5-|---3---3---5---5-|---3---3---5---5-|
|-----------------|-----------------|-----------------|

|-------------------|-----------------|
|-----10-------12---|-----------------|
|---8---8---10---10-|--12-------------|
|-------------------|-----------------|

Sorry if this was written badly, it was my first attempt at writing tabs lol.

guest
Wanna post a correction for this tab? Suggest correction