Oops, an error
Loading. Please wait.
We have an official Highway Star tab made by UG professional guitarists. Check out the tab »
×

Highway Star tab

256 views 9 this week
no commentswrite comment
1 2 3 4 5
3 more votes to show rating
add to favorites
×
Save as Personal and add changes to this tab that will be seen only by you. Learn more ›
×
You can save this tab as Personal to edit and correct it or add notes. All changes will be seen only by you. Learn more »
launch autoscroll
font size
0
reset
how to read this tab
guitar tuner
backing track
0:00
0:00
edit
Autoscroll
slow
fast
+/-
esc
set tempo
stop
About this tab version
My version contains all the guitar and keyboard parts. Was this info helpful? Yes No
HIGHWAY STAR
As recorded by Deep Purple
(From the 1972 Album MACHINE HEAD)
Tablature (Tab) for Guitar
Words and Music by Blackmore / Gillan / Glover / Lord / Paice

Gtr I (E A D G B E) - 'Blackmore'

Gtr II (E A D G B E) - 'Lord'

Gtr III (E A D G B E) - 'Blackmore overdub'

Gtr IV (E A D G B E) - 'Lord overdub'

Gtr V (E A D G B E) - 'Blackmore overdub #2'


 Intro
  Fast Rock Q=168
  G          F/G        C/G        F/G
 4/4
  Gtr I
  W          W          W          W
|----------|----------|----------|----------|
|----------|----------|----------|----------|
|----------|----------|----------|----------|
|-5--------|-3--------|-2--------|-3--------|
|----------|-3--------|-3--------|-3--------|
|-3--------|-3--------|-3--------|-3--------|
|
| Gtr II
| W          W          W          W
|----------|----------|----------|----------|
|----------|----------|----------|----------|
|----------|----------|----------|----------|
|----------|----------|----------|----------|
|----------|----------|----------|----------|
|----------|----------|----------|----------|


  G          F/G          G
  W           W           W           W
|----------|------------|----------|--------|
|----------|------------|----------|--------|
|----------|------------|----------|--------|
|-5--------|--3---------|-5--------|--5-----|
|-5--------|--3---------|-5--------|--5-----|
|-3--------|--3---------|-3--------|--3-----|
|
| <
| W          +W           W          +W
|----------|------------|----------|--------|
|----------|------------|----------|--------|
|----------|------------|----------|--------|
|----------|------------|-5--------|-(5)----|
|-5--------|-(5)--------|-5--------|-(5)----|
|-3--------|-(3)--------|----------|--------|


  G
  PM------------------------------------------------------------------|
  E E E E E E E E   E E E E E E E E   E E E E E E E E   E E E E E E E E
|-----------------|-----------------|-----------------|-----------------|
|-----------------|-----------------|-----------------|-----------------|
|-----------------|-----------------|-----------------|-----------------|
|-----------------|-----------------|-----------------|-----------------|
|-5-5-5-5-5-5-5-5-|-5-5-5-5-5-5-5-5-|-5-5-5-5-5-5-5-5-|-5-5-5-5-5-5-5-5-|
|-3-3-3-3-3-3-3-3-|-3-3-3-3-3-3-3-3-|-3-3-3-3-3-3-3-3-|-3-3-3-3-3-3-3-3-|
|
| e e e e e e e e   e e e e e e e e   e e e e e e e e   e e e e e e e e
|-----------------|-----------------|-----------------|-----------------|
|-----------------|-----------------|-----------------|-----------------|
|-----------------|-----------------|-----------------|-----------------|
|-5-5-5-5-5-5-5-5-|-5-5-5-5-5-5-5-5-|-5-5-5-5-5-5-5-5-|-5-5-5-5-5-5-5-5-|
|-5-5-5-5-5-5-5-5-|-5-5-5-5-5-5-5-5-|-5-5-5-5-5-5-5-5-|-5-5-5-5-5-5-5-5-|
|-----------------|-----------------|-----------------|-----------------|


    G
    PM----------------------------------------------------------------------|
    E E E E  E  E E E   E E E E E E E E  3x E E E E E E E E   E E E E E E E E
||--------------------|------------------||-----------------|------------------|
||o-------------------|-----------------o||-----------------|------------------|
||--------------------|------------------||-----------------|------------------|
||--------------------|------------------||-----------------|------------------|
||o-5-5-5-5--5--5-5-5-|-5-5-5-5-5-5-5-5-o||-5-5-5-5-5-5-5-5-|-5-5-5-5-5-5-5-5--|
||--3-3-3-3--3--3-3-3-|-3-3-3-3-3-3-3-3--||-3-3-3-3-3-3-3-3-|-3-3-3-3-3-3-3-3--|
|
|   Q   E E +E  E Q     E Q   E Q   E E  3x e e E E e e E E   e e E E e e e e
||--------------------|------------------||-----------------|------------------|
||o-------------------|-----------------o||-----------------|------------------|
||--3-----3-(3)---3---|---3-----3---5----||-3-3-3---3-3-3---|-3-3-3------------|
||--3---5-3-(3)-5-3---|-5-3---5-3---5----||-3-3-3-5-3-3-3-3-|-3-3-3-5-5-5-5-5--|
||o-----5-------5-----|-5-----5---------o||-------5-------3-|-------5-5-5-5-5--|
||--------------------|------------------||-----------------|------------------|


  G                                                         C    Bb
    PM--------------------------------------------------|
    E E E E  E  E E E   E E E E E E E E   E E E E E E E E   H    H
|---------------------|-----------------|-----------------|-----------||
|---------------------|-----------------|-----------------|-----------||
|---------------------|-----------------|-----------------|-5----3----||
|---------------------|-----------------|-----------------|-5----3----||
|---5-5-5-5--5--5-5-5-|-5-5-5-5-5-5-5-5-|-5-5-5-5-5-5-5-5-|-3----1----||
|---3-3-3-3--3--3-3-3-|-3-3-3-3-3-3-3-3-|-3-3-3-3-3-3-3-3-|-----------||
|
| a Q   E E +E  E Q     E Q   E e e E E   Q   Q   Q   E E   H    H
|---------------------|-----------------|-----------------|-----------||
|---------------------|-----------------|-----------------|-1---------||
|-2h3-----3-(3)---3---|---3-----3-3-3-5-|-3-------3-----3-|-0----3----||
|-2h3---5-3-(3)-5-3---|-5-3---5-3-3-3-5-|-3---5---3---5-3-|-2----3----||
|-------5-------5-----|-5-----5---------|-----5-------5---|------5----||
|---------------------|-----------------|-----------------|-----------||


   Verse
    $
    $$
    G                                                     Bb   C      Bb
    PM------------------------------------------------|
    E E E E E E E E   E E E E E E E E   E E E E E E E E   Q  E E +Q   Q
||------------------|-----------------|-----------------|-----------------|
||o-----------------|-----------------|-----------------|-----------------|
||------------------|-----------------|-----------------|-----------------|
||------------------|-----------------|-----------------|-3----5-(5)--3---|
||o-5-5-5-5-5-5-5-5-|-5-5-5-5-5-5-5-5-|-5-5-5-5-5-5-5-5-|-1----3-(3)--1---|
||--3-3-3-3-3-3-3-3-|-3-3-3-3-3-3-3-3-|-3-3-3-3-3-3-3-3-|-----------------|
|
|   e e e e e e e e   e e e e e e e e   e e e e e e e e   Q  E E +Q   Q
||------------------|-----------------|-----------------|-----------------|
||o-----------------|-----------------|-----------------|-----------------|
||------------------|-----------------|-----------------|-3----5-(5)--3---|
||--5-5-5-5-5-5-5-5-|-5-5-5-5-5-5-5-5-|-5-5-5-5-5-5-5-5-|-3----5-(5)--3---|
||o-5-5-5-5-5-5-5-5-|-5-5-5-5-5-5-5-5-|-5-5-5-5-5-5-5-5-|-----------------|
||------------------|-----------------|-----------------|-----------------|


  G                                                     Bb   C      Bb
  PM------------------------------------------------|
  E E E E E E E E   E E E E E E E E   E E E E E E E E   Q  E E +Q   Q
|-----------------|-----------------|-----------------|----------------|
|-----------------|-----------------|-----------------|----------------|
|-----------------|-----------------|-----------------|----------------|
|-----------------|-----------------|-----------------|-3----5-(5)--3--|
|-5-5-5-5-5-5-5-5-|-5-5-5-5-5-5-5-5-|-5-5-5-5-5-5-5-5-|-1----3-(3)--1--|
|-3-3-3-3-3-3-3-3-|-3-3-3-3-3-3-3-3-|-3-3-3-3-3-3-3-3-|----------------|
|
| e e e e e e e e   e e e e e e e e   e e e e e e e e   Q  E E +Q   Q
|-----------------|-----------------|-----------------|----------------|
|-----------------|-----------------|-----------------|----------------|
|-----------------|-----------------|-----------------|-3----5-(5)--3--|
|-5-5-5-5-5-5-5-5-|-5-5-5-5-5-5-5-5-|-5-5-5-5-5-5-5-5-|-3----5-(5)--3--|
|-5-5-5-5-5-5-5-5-|-5-5-5-5-5-5-5-5-|-5-5-5-5-5-5-5-5-|----------------|
|-----------------|-----------------|-----------------|----------------|


  F
  PM----------------------------------------------------|
  E E E E E E E E   E E E E E E E E   E E E E E E E E   Q   Q  Q  Q
|-----------------|-----------------|-----------------|--------------|
|-----------------|-----------------|-----------------|--------------|
|-----------------|-----------------|-----------------|--------------|
|-----------------|-----------------|-----------------|-----3--2--1--|
|-3-3-3-3-3-3-3-3-|-3-3-3-3-3-3-3-3-|-3-3-3-3-3-3-3-3-|-3------------|
|-1-1-1-1-1-1-1-1-|-1-1-1-1-1-1-1-1-|-1-1-1-1-1-1-1-1-|-1------------|
|
| e e e e e e e e   e e e e e e e e   e e e e e e e e   E e Q  Q  Q
|-----------------|-----------------|-----------------|--------------|
|-----------------|-----------------|-----------------|--------------|
|-----------------|-----------------|-----------------|-----2--1--0--|
|-3-3-3-3-3-3-3-3-|-3-3-3-3-3-3-3-3-|-3-3-3-3-3-3-3-3-|-3-3-3--2--1--|
|-3-3-3-3-3-3-3-3-|-3-3-3-3-3-3-3-3-|-3-3-3-3-3-3-3-3-|-3-3----------|
|-----------------|-----------------|-----------------|--------------|


  D
  Q   Q   +Q.     E   +Q     H.
|-----2---(2)-----3-|-(3)----2------------|
|-----3---(3)-----3-|-(3)----3------------|
|-----2---(2)-----2-|-(2)----2------------|
|-0-----------------|--0----------------0-|
|-------------------|---------------------|
|-------------------|---------------------|
| W                    H..              E
|
| e e e e  e  e e e    e   e e  e e e e e
|-------------------|---------------------|
|-------------------|---------------------|
|-2-2-2-2--2--2-2-2-|--2---2-2--2-2-2-2-2-|
|-0-0-0-0--0--0-0-0-|--0---0-0--0-0-0-0-0-|
|-------------------|---------------------|
|-------------------|---------------------|


   Q    H.              Q   Q  Q  E E
|-------2------------|------2--2--2---||
|-------3------------|------3--3--3---||
|-------2------------|------2--2--2-5-||
|-(0)------------0---|-(0)--------0-5-||
|--------------------|----------------||
|--------------------|----------------||
| +H.            Q     +H.        E E
|
|  e  e e  e e e e e    Q   Q  Q  E E
|--------------------|----------------||
|--------------------|--1---1--1------||
|--2--2-2--2-2-2-2-2-|--0------0----5-||
|--0--0-0--0-0-0-0-0-|------3-----3-5-||
|--------------------|----------------||
|--------------------|----------------||


 Pre-Chorus
  Am7
  +Q   E E E E E E   +Q   E E E E E E   +Q   E E E E E E   +Q   E E +Q   E E
|------------------|------------------|------------------|-------------------|
|------------------|------------------|------------------|-------------------|
|-(5)------------5-|-(5)------------5-|-(5)------------5-|-(5)----5-(5)----5-|
|-(5)------------5-|-(5)------------5-|-(5)------------5-|-(5)----5-(5)----5-|
|------0-0-0-0-0---|------0-0-0-0-0---|------0-0-0-0-0---|------0--------0---|
|------------------|------------------|------------------|-------------------|
|
| +Q   E E Q   E E   +Q   E E Q   E E   +Q   E E Q   E E   +Q   E E +Q   E E
|------------------|------------------|------------------|-------------------|
|------------------|------------------|------------------|-------------------|
|-(5)--2---------5-|-(5)--2---------5-|-(5)--2---------5-|-(5)--2-5-(5)--2-5-|
|-(5)------------5-|-(5)------------5-|-(5)------------5-|-(5)----5-(5)----5-|
|------------------|------------------|------------------|-------------------|
|------------------|------------------|------------------|-------------------|


                                        Chorus
  Am7                               C          D       C         D       C
  +Q   E E E E E E   +Q   E E E E E E    +Q.   E +Q.   E   +Q.   E +Q.   E
|------------------|------------------||-----------------|-----------------|
|------------------|------------------||-----------------|-----------------|
|-(5)------------5-|-(5)--------------||-----------------|-----------------|
|-(5)------------5-|-(5)--------------||-----------------|-----------------|
|------0-0-0-0-0---|------0-0-0-0-0-3-||-(3)---5-(5)---3-|-(3)---5-(5)---3-|
|------------------|------------------||-----------------|-----------------|
|
| +Q   E E Q   E E   +Q   E E Q   E E    +Q.   E +Q.   E   +Q.   E +Q.   E
|------------------|------------------||-----------------|-----------------|
|------------------|----------------1-||-(1)---3-(3)---1-|-(1)---3-(3)---1-|
|-(5)--2---------5-|-(5)--2---------0-||-(0)---2-(2)---0-|-(0)---2-(2)---0-|
|-(5)------------5-|-(5)------------2-||-(2)---4-(4)---2-|-(2)---4-(4)---2-|
|------------------|------------------||-----------------|-----------------|
|------------------|------------------||-----------------|-----------------|


    To Dbl. Coda
        D       F         G       A
  +Q.   E +Q.   E   +Q.   E +Q.   E   +W
|-----------------|-----------------|------------|
|-----------------|-----------------|------------|
|-----------------|-----------------|------------|
|---------------3-|-(3)---5-(5)-----|------------|
|-(3)---5-(5)-----|---------------0-|-(0)--------|
|-----------------|-----------------|------------|
|
| +Q.   E +Q.   E   +Q.   E +Q.   E   +W
|-----------------|---------------0-|-(0)--------|
|-(1)---3-(3)---1-|-(1)---3-(3)---2-|-(2)--------|
|-(0)---2-(2)---2-|-(2)---4-(4)---2-|-(2)--------|
|-(2)---4-(4)---3-|-(3)---5-(5)-----|------------|
|-----------------|-----------------|------------|
|-----------------|-----------------|------------|


               1.
       To Coda
                             C    Bb
  +W            +W           H    H
|-------------|------------|------------||
|-------------|------------|-----------o||
|-------------|------------|-5----3-----||
|-------------|------------|-5----3-----||
|-(0)---------|-(0)--------|-----------o||
|-------------|------------|------------||
|
| +W             W           H    H
|-(0)\--------|------------|------------||
|-(2)\--------|------------|-----------o||
|-(2)\--------|------------|-0----------||
|-------------|------------|-2----3-----||
|-------------|--0---------|-3----5----o||
|-------------|------------|------6-----||


                          Organ Solo
  2.
  A                        Dm
                           PM------------------------------------|
  W          +W            E   E E E E E E E    E  E E E E E E S S
|----------|------------||-------------------|---------------------|
|----------|------------||-------------------|---------------------|
|----------|------------||-------------------|---------------------|
|----------|------------||-0---0-0-0-0-0-0-0-|--0--0-0-0-0-0-0-0-0-|
|-0--------|-(0)--------||-------------------|---------------------|
|----------|------------||-------------------|---------------------|
|
| W          +W            H..             E   +H..            E
|----------|------------||-------------------|---------------------|
|----------|------------||-------------------|---------------------|
|----------|------------||-------------------|---------------------|
|----------|------------||-0s==============2-|-(2)s============4---|
|-0--------|-(0)--------||-0s==============2-|-(2)s============4---|
|----------|------------||-------------------|---------------------|


  Dm
   PM----------------------------------------
   E  E E E E E E S S    E  E E E E E E S S
|---------------------|---------------------|
|---------------------|---------------------|
|---------------------|---------------------|
|--0--0-0-0-0-0-0-0-0-|--0--0-0-0-0-0-0-0-0-|
|---------------------|---------------------|
|---------------------|---------------------|
|
| +H..            E     +H..            E
|---------------------|---------------------|
|---------------------|---------------------|
|---------------------|---------------------|
|-(4)s============6---|-(6)s============8---|
|-(4)s============6---|-(6)s============8---|
|---------------------|---------------------|


 --------------------------------------------|
   E  E E E E E E S S    E  S S E E E E E  S S
|---------------------|-------------------------|
|---------------------|-------------------------|
|---------------------|-------------------------|
|--0--0-0-0-0-0-0-0-0-|--0--0-0-0-0-0-0-0--0-0--|
|---------------------|-------------------------|
|---------------------|-------------------------|
|
| +H..            E     +H..               E
|---------------------|-------------------------|
|---------------------|-------------------------|
|---------------------|-------------------------|
|-(8)s============9---|-(9)s==============10----|
|-(8)s============9---|-(9)s==============10----|
|---------------------|-------------------------|


  Dm
    PM-------------------------------------------
    E  E E E E E E  S S     E  E E E  E E E S S
|-----------------------|-----------------------|
|-----------------------|-----------------------|
|-----------------------|-----------------------|
|---0--0-0-0-0-0-0--0-0-|---0--0-0-0--0-0-0-0-0-|
|-----------------------|-----------------------|
|-----------------------|-----------------------|
|
|  +H..             E      +H         H
|-----------------------|-----------------------|
|-----------------------|-----------------------|
|-----------------------|-----------------------|
|-(10)s============11---|-(11)s======12---------|
|-(10)s============11---|-(11)s======12---------|
|-----------------------|-----------------------|


 ------------------------------------------|
  E E E E E E E S S   E S S E E  E  E  E S S
|-------------------|-------------------------|
|-------------------|-------------------------|
|-------------------|-------------------------|
|-0-0-0-0-0-0-0-0-0-|-0-0-0-0-0--0--0--0-0-0--|
|-------------------|-------------------------|
|-------------------|-------------------------|
|
| W                   E Q     E +E  Q.
|-------------------|-------------------------|
|-------------------|-------------------------|
|-2-----------------|-3-------2-(2)-----------|
|-------------------|---5-----------2---------|
|-------------------|-------------------------|
|-------------------|-------------------------|


  Dm
  PM--------------------------------------------------|
  E S S S S S S  E  E   E S S   E S S E E  S  S S S E E
|-----------------------------|-------------------------||
|-----------------------------|-------------------------||
|-----------------------------|-------------------------||
|-0-0-0-0-0-0-0--0--0---0-0-0-|-0-0-0-0-0--0--0-0-0-0---||
|-----------------------------|-----------------------0-||
|-----------------------------|-------------------------||
|
| E E   Q       +E  S S E S S   E S S Q   +E    S S E E
|-----------------------------|-------------------------||
|-----------------------------|-------------------------||
|---2---2-------(2)-3-2---2---|-----2---------------2---||
|-5---------------------5---5-|-3-5---5---(5)---3-5---5-||
|-----------------------------|-------------------------||
|-----------------------------|-------------------------||


  Am                                E/G#
  E   E   E   E   E   E   E   E     E   E   E   E   E   E   E   E
|---------------------------------|---------------------------------|
|---------------------------------|---------------------------------|
|---------------------------------|---------------------------------|
|---------------------------------|---------------------------------|
|---------------------------------|---------------------------------|
|-5---5---5---5---5---5---5---5---|-4---4---4---4---4---4---4---4---|
|
| Gtr IV
| S S S S S S S S S S S S S S S S   S S S S S S S S S S S S S S S S
|---------------------------------|---------------------------------|
|-----5-------5-------5-------5---|-----5-------5-------5-------5---|
|---5---5---5---5---5---5---5---5-|---4---4---4---4---4---4---4---4-|
|-7-------7-------7-------7-------|-6-------6-------6-------6-------|
|---------------------------------|---------------------------------|
|---------------------------------|---------------------------------|
|
| Gtr II
| S S S S S S S S S S S S S S S S   S S S S S S S S S S S S S S S S
|---------------------------------|---------------------------------|
|---------------------------------|---------------------------------|
|-----5-------5-------5-------5---|-----4-------4-------4-------4---|
|---7---7---7---7---7---7---7---7-|---6---6---6---6---6---6---6---6-|
|-7-------7-------7-------7-------|-7-------7-------7-------7-------|
|---------------------------------|---------------------------------|


  Gm                                D/F#
  E   E   E   E   E   E   E   E     E   E   E   E   E   E   E   E
|---------------------------------|---------------------------------|
|---------------------------------|---------------------------------|
|---------------------------------|---------------------------------|
|---------------------------------|---------------------------------|
|---------------------------------|---------------------------------|
|-3---3---3---3---3---3---3---3---|-2---2---2---2---2---2---2---2---|
|
| S S S S S S S S S S S S S S S S   S S S S S S S S S S S S S S S S
|---------------------------------|---------------------------------|
|-----3-------3-------3-------3---|-----3-------3-------3-------3---|
|---3---3---3---3---3---3---3---3-|---2---2---2---2---2---2---2---2-|
|-5-------5-------5-------5-------|-4-------4-------4-------4-------|
|---------------------------------|---------------------------------|
|---------------------------------|---------------------------------|
|
| S S S S S S S S S S S S S S S S   S S S S S S S S S S S S S S S S
|---------------------------------|---------------------------------|
|---------------------------------|---------------------------------|
|-----3-------3-------3-------3---|-----2-------2-------2-------2---|
|---5---5---5---5---5---5---5---5-|---4---4---4---4---4---4---4---4-|
|-5-------5-------5-------5-------|-5-------5-------5-------5-------|
|---------------------------------|---------------------------------|


  Am                                E/G#
  E   E   E   E   E   E   E   E     E   E   E   E   E   E   E   E
|---------------------------------|---------------------------------|
|---------------------------------|---------------------------------|
|---------------------------------|---------------------------------|
|---------------------------------|---------------------------------|
|---------------------------------|---------------------------------|
|-5---5---5---5---5---5---5---5---|-4---4---4---4---4---4---4---4---|
|
| S S S S S S S S S S S S S S S S   S S S S S S S S S S S S S S S S
|---------------------------------|---------------------------------|
|-----5-------5-------5-------5---|-----5-------5-------5-------5---|
|---5---5---5---5---5---5---5---5-|---4---4---4---4---4---4---4---4-|
|-7-------7-------7-------7-------|-6-------6-------6-------6-------|
|---------------------------------|---------------------------------|
|---------------------------------|---------------------------------|
|
| S S S S S S S S S S S S S S S S   S S S S S S S S S S S S S S S S
|---------------------------------|---------------------------------|
|---------------------------------|---------------------------------|
|-----5-------5-------5-------5---|-----4-------4-------4-------4---|
|---7---7---7---7---7---7---7---7-|---6---6---6---6---6---6---6---6-|
|-7-------7-------7-------7-------|-7-------7-------7-------7-------|
|---------------------------------|---------------------------------|


  Gm                                D/F#
  E   E   E   E   E   E   E   E     E   E   E   E   E   E   E   E
|---------------------------------|---------------------------------|
|---------------------------------|---------------------------------|
|---------------------------------|---------------------------------|
|---------------------------------|---------------------------------|
|---------------------------------|---------------------------------|
|-3---3---3---3---3---3---3---3---|-2---2---2---2---2---2---2---2---|
|
| S S S S S S S S S S S S S S S S   S S S S S S S S S S S S S S S S
|---------------------------------|---------------------------------|
|-----3-------3-------3-------3---|-----3-------3-------3-------3---|
|---3---3---3---3---3---3---3---3-|---2---2---2---2---2---2---2---2-|
|-5-------5-------5-------5-------|-4-------4-------4-------4-------|
|---------------------------------|---------------------------------|
|---------------------------------|---------------------------------|
|
| S S S S S S S S S S S S S S S S   S S S S S S S S S S S S S S S S
|---------------------------------|---------------------------------|
|---------------------------------|---------------------------------|
|-----3-------3-------3-------3---|-----2-------2-------2-------2---|
|---5---5---5---5---5---5---5---5-|---4---4---4---4---4---4---4---4-|
|-5-------5-------5-------5-------|-5-------5-------5-------5-------|
|---------------------------------|---------------------------------|


  F
  E   E   E   E   E   E   E   E     E   E   E   E   E   E   E   E
|---------------------------------|---------------------------------|
|---------------------------------|---------------------------------|
|---------------------------------|---------------------------------|
|---------------------------------|---------------------------------|
|-------------0-------0-----------|---------------------------------|
|-1---1---1-------1-------1-------|-1---1---1---1---1---1---1---1---|
|
| S S S S S S S S S S S S S S S S   S S S S S S S S S S S S S S S S
|---------------------------------|-----1-------1-------1-0-------0-|
|-----1-------1-------1-----------|---1---1---1---1---1-----3-1-3---|
|---2---2---2---2---2---3-2-0---0-|-2-------2-------2---------------|
|-3-------3-------3-----------3---|---------------------------------|
|---------------------------------|---------------------------------|
|---------------------------------|---------------------------------|
|
| S S S S S S S S S S S S S S S S   S S S S S S S S S S S S S S S S
|---------------------------------|---------------------------------|
|---------------------------------|-----1-------1-------1-----------|
|-----2-------2-------2-----------|---2---2---2---2---2---3-2-0---0-|
|---3---3---3---3---3---5-3-2-3-5-|-3-------3-------3-----------3---|
|-3-------3-------3---------------|---------------------------------|
|---------------------------------|---------------------------------|


  Dm
  E   E   E   E   E   E   E   E      E    E     E    E     E    E    E    E
|---------------------------------|-------------------------------------------|
|---------------------------------|-------------------------------------------|
|---------------------------------|-------------------------------------------|
|-0---0---0-------0---0-----------|--0----------0----------0----0----0----0---|
|-------------0-----------0---0---|-------0----------0------------------------|
|---------------------------------|-------------------------------------------|
|
| S S S S S S S S S S S S S S S S    S  S S  S  S  S S  S  S  S S S  S S  S S
|-----5-------5-------5-----------|-------8----------8----------8-7---------7-|
|---6---6---6---6---6---8-6-5-6-8-|----10---10----10---10----10-----10-8-10---|
|-7-------7-------7---------------|-10---------10---------10------------------|
|---------------------------------|-------------------------------------------|
|---------------------------------|-------------------------------------------|
|---------------------------------|-------------------------------------------|
|
| S S S S S S S S S S S S S S S S    S  S S  S  S  S S  S  S  S S S  S S  S S
|---------------------------------|-------5----------5----------5-------------|
|-----6-------6-------6-5-------5-|-----6----6-----6----6-----6---8--6-5--6-8-|
|---7---7---7---7---7-----7-5-7---|--7----------7----------7------------------|
|-7-------7-------7---------------|-------------------------------------------|
|---------------------------------|-------------------------------------------|
|---------------------------------|-------------------------------------------|


  Am
   Q.   E E  E E E   H          E   E   E E
|------------------|------------------------|
|------------------|------------------------|
|------------------|------------------------|
|---------5--7-5-7-|------------5---7---5-7-|
|--0----7----------|-0----------------------|
|------------------|------------------------|
|
|  H      H          S S S S Q  S S S S Q
|--8------8\-------|-6-5--------6-5---------|
|------------------|-----8---8------8---8---|
|------------------|------------------------|
|------------------|------------------------|
|------------------|------------------------|
|------------------|------------------------|
|
|  W                 W
|--8---------------|------------------------|
|-10---------------|------------------------|
|------------------|------------------------|
|------------------|------------------------|
|------------------|------------------------|
|------------------|------------------------|


  Q.         E E   E   E E   +E  E E E     +E  E E E
|--------------------------|---------------------------|
|--------------------------|---------------------------|
|------------------------6-|-(6)-----------------------|
|--------------5---7---5---|-----7-5-7-----(7)---5-7---|
|-0----------7-------------|-------------------0-------|
|--------------------------|---------------------------|
|
| S  S S S Q   S S S S E E    E  E E E a a  E  E E E
|-5--4---------5-4---------|---------------------------|
|------5---5-------5---5-6-|--5--3-5-6-5-6--5--3-------|
|--------------------------|---------------------6-3---|
|--------------------------|---------------------------|
|--------------------------|---------------------------|
|--------------------------|---------------------------|
|
| W                           W
|--------------------------|---------------------------|
|--------------------------|---------------------------|
|--------------------------|---------------------------|
|--------------------------|---------------------------|
|--------------------------|---------------------------|
|--------------------------|---------------------------|


  Am
  Q       Q         E   E   E   E     +Q        Q       E   E   E   E
|-----------------------------------|------------------------------------|
|-----------------------------------|------------------------------------|
|-----------------------------------|------------------------------------|
|---------7---------5---7---5-------|-----------7-------5---7---5---7----|
|-0-----------------------------0---|-(0)--------------------------------|
|-----------------------------------|------------------------------------|
|
| Gtr IV
| S S S S S S S S a S S S S S S S S    S  S S S S S S S S S S S S S S S
|-----------------------------------|------------------------------------|
|-3-2-----3-2-----3-1-------1-------|------------------------------------|
|-----3-2-----3-2-----3-2-0---3-2-0-|--3--2-0---2-0-----0----------------|
|-----------------------------------|---------3-----3-2---3-2-0-3-2-0----|
|-----------------------------------|---------------------------------3--|
|-----------------------------------|------------------------------------|


  Am
  E   E   E   E   E   E   E   E     E   E   E   E   E   E   E   E
|---------------------------------|--------------------------------||
|---------------------------------|--------------------------------||
|---------------------------------|--------------------------------||
|---------------------------------|--------------------------------||
|-0---0---0---0---0---0---0---0---|-0---0---0---0---0---0---0---0--||
|---------------------------------|--------------------------------||
|
|                 Gtr II
| S S S S S S S S S S S S S S S S   S S S S S S S S S S S S S S E
|---------------------------------|--------------------------------||
|---------------------------------|--------------------------------||
|-----------------5-3-2-0-3-2-0---|-2-0-----0----------------------||
|-2-0-----0---------------------3-|-----3-2---3-2-0-3-2-0---2-0----||
|-----3-1---3-1-0-----------------|-----------------------3-----3--||
|---------------------------------|--------------------------------||


   Interlude
    Dm                F    G       F    Dm                F    G       F
    E E E E E E E E   Q  E E +E  E Q    E E E E E E E E   Q  E E +E  E Q
||------------------|-----------------|-----------------|-------------------||
||o-----------------|-----------------|-----------------|------------------o||
||------------------|-5----7-(7)---5--|-----------------|-5----7-(7)---5----||
||--0-0-0-0-0-0-0-0-|-3--0-5-(5)-0-3--|-0-0-0-0-0-0-0-0-|-3--0-5-(5)-0-3----||
||o-----------------|-----------------|-----------------|------------------o||
||------------------|-----------------|-----------------|-------------------||
|
|   W                 Q  E E +E  E Q    W                 Q  E E +E  E Q
||------------------|-----------------|-----------------|-------------------||
||o-3---------------|-6--3-8-(8)-3-6--|-3---------------|-6--3-8-(8)-3-6---o||
||--2---------------|-5--2-7-(7)-2-5--|-2---------------|-5--2-7-(7)-2-5----||
||------------------|-----------------|-----------------|-------------------||
||o-----------------|-----------------|-----------------|------------------o||
||------------------|-----------------|-----------------|-------------------||


  N.C.
                                ~~~~~~~~~~~~~
  E E E E E E E E   E E E E    +H        +W             +Q    Q  E E E E
|-----------------|--------------------|--------------|------------------|
|-----------------|--------------------|--------------|------------------|
|-----------------|---5---5b7==(5)-----|-(5)----------|-(5)r-----7-5-----|
|-------3---5---7-|--------------------|--------------|----------------7-|
|-3-5-------------|--------------------|--------------|-------x----------|
|-----------------|--------------------|--------------|------------------|
|
|                              Gtrs II, IV
| E E Q   H         H           Q   Q     Q   Q  H      +H       H
|-----------------|--------------------|--------------|------------------|
|-----------------|-------------6---5--|--3---1--3----|-(3)\-------------|
|-5-7-------------|-------------7---5--|--2---0--2----|-(2)\-------------|
|-5-7-------------|-------------7---5--|--3---2--3----|-(3)\-------------|
|-----------------|--------------------|--------------|------------------|
|-----------------|--------------------|--------------|------------------|


                                         D.S. al Coda
  N.C.             C                              Bb
  E E E E E E Q    W          +W             H    H
|----------------|----------|--------------|------------||
|----------------|----------|--------------|------------||
|----------------|----------|--------------|-5----3-----||
|---6---5---3----|----------|--------------|-5----3-----||
|-------------5--|-3--------|-(3)----------|------------||
|----------------|----------|--------------|------------||
|
| W                W          +W             H    H
|----------------|----------|--------------|-0----------||
|----------------|----------|--------------|-1----3\----||
|----------------|-0--------|-(0)----------|-0----3\----||
|----------------|-2--------|-(2)----------|------3\----||
|----------------|-3--------|-(3)----3/----|------------||
|----------------|----------|--------3/----|------------||
                               H     H


  &
  A
  W           H       E  E  E  E
|----------|------------------12b13==||
|----------|---------------10--------||
|----------|------------10-----------||
|----------|-------------------------||
|-0--------|-(0)---------------------||
|----------|-------------------------||
|            +W
|
| Gtr III
| W           H       E  E  E  E
|----------|-------------------------||
|----------|------------------13b15==||
|----------|---------------10--------||
|----------|------------12-----------||
|----------|-------------------------||
|----------|-------------------------||
|
| Gtrs II, IV
| W           Q   Q   H
|----------|--5s=17\-----------------||
|----------|--5s=17\-----------------||
|----------|-------------------------||
|----------|--7s=19\-----------------||
|----------|-------------------------||
|----------|--5s=17\-----------------||


 Guitar Solo
  Dm
    ~~~~~                           ~~~
   +H         E  E  E  E       +E   Q.     E  E  E  E
|-(12)r---------------12b13-|-(12)-----------------15b17r|
|------------------10-------|------10-----------13-------|
|---------------10----------|----------------14----------|
|---------------------------|----------------------------|
|---------------------------|----------------------------|
|---------------------------|----------------------------|
|
|   ~~~~~                           ~~~
|  +H         E  E  E  E       +E   Q.     E  E  E  E
|---------------------------|----------------------12b13r|
|-(13)r---------------13b15-|-(13)--------------10-------|
|------------------10-------|------10--------10----------|
|---------------12----------|----------------------------|
|---------------------------|----------------------------|
|---------------------------|----------------------------|
|
| Gtr V
|   PM----------------------------------------------------
|   e   e e e e  e  e  e        e   e  e e e  e  e  e
|---------------------------|----------------------------|
|---------------------------|----------------------------|
|---------------------------|----------------------------|
|---7---7-7-7-7--7--7--7----|---7---7--7-7-7--7--7--7----|
|---5---5-5-5-5--5--5--5----|---5---5--5-5-5--5--5--5----|
|---------------------------|----------------------------|


                                ~~~~
   +E   E  E  E  E  E  E  E    +H        E  E  E  E
|-(15)-15-13----------------|--------------------12b13--|
|------------13-------------|-----------------10--------|
|---------------14----15-14-|-(14)---------10-----------|
|------------------15-------|---------------------------|
|---------------------------|---------------------------|
|---------------------------|---------------------------|
|
|                               ~~~~
|  +E   E  E  E  E  E  E  E    +H        E  E  E  E
|-(12)-12-10----------------|---------------------------|
|------------10-------------|--------------------13b15==|
|---------------10----12-10-|-(10)------------10--------|
|------------------12-------|--------------12-----------|
|---------------------------|---------------------------|
|---------------------------|---------------------------|
|
|------------------------------------------------|
|   e   e  e  e  e  e  e  e     e  e e e e  e  e  e
|---------------------------|---------------------------|
|---------------------------|---------------------------|
|---------------------------|---------------------------|
|---7---7--7--7--7--7--7--7-|---7--7-7-7-7--7--7--7-----|
|---5---5--5--5--5--5--5--5-|---5--5-5-5-5--5--5--5-----|
|---------------------------|---------------------------|


  Dm
    ~~~~~                           ~~~
   +H         E  E  E  E       +E   Q.     E  E  E  E
|-(12)r---------------12b13-|-(12)-----------------15b17r|
|------------------10-------|------10-----------13-------|
|---------------10----------|----------------14----------|
|---------------------------|----------------------------|
|---------------------------|----------------------------|
|---------------------------|----------------------------|
|
|   ~~~~~                           ~~~
|  +H         E  E  E  E       +E   Q.     E  E  E  E
|---------------------------|----------------------12b13r|
|-(13)r---------------13b15-|-(13)--------------10-------|
|------------------10-------|------10--------10----------|
|---------------12----------|----------------------------|
|---------------------------|----------------------------|
|---------------------------|----------------------------|
|
|   PM----------------------------------------------------
|   e   e e e e  e  e  e        e   e  e e e  e  e  e
|---------------------------|----------------------------|
|---------------------------|----------------------------|
|---------------------------|----------------------------|
|---7---7-7-7-7--7--7--7----|---7---7--7-7-7--7--7--7----|
|---5---5-5-5-5--5--5--5----|---5---5--5-5-5--5--5--5----|
|---------------------------|----------------------------|


                                ~~~~
   +E   E  E  E  E  E  E  E    +H        Q   E  a      E
|-(15)-15-13----------------|-----------------------------|
|------------13-------------|-----------------------------|
|---------------14----15-14-|-(14)-------------12b14==12r-|
|------------------15-------|-----------------------------|
|---------------------------|-----------------------------|
|---------------------------|-----------------------------|
|
|                               ~~~~
|  +E   E  E  E  E  E  E  E    +H        Q   E  a      E
|-(12)-12-10----------------|-----------------------------|
|------------10-------------|-------------------8b10===8r-|
|---------------10----12-10-|-(10)------------------------|
|------------------12-------|-----------------------------|
|---------------------------|-----------------------------|
|---------------------------|-----------------------------|
|
|-----------------------------------------------------|
|   e   e  e  e  e  e  e  e     e  e e e e e e         e
|---------------------------|-----------------------------|
|---------------------------|-----------------------------|
|---------------------------|-----------------------------|
|---7---7--7--7--7--7--7--7-|---7--7-7-7-7-7-7---------7--|
|---5---5--5--5--5--5--5--5-|---5--5-5-5-5-5-5---------5--|
|---------------------------|-----------------------------|


  A
  E  a      E  +Q     +Q     E  a      E    E  a      E  +Q     +Q     E  a      E
|-----------------------------------------|----------------------------------------|
|------------------------------12b13==12r-|---12b13==12-(12)---(12)r-----12b13==12-|
|---12b14==12-(12)---(12)r----------------|----------------------------------------|
|-----------------------------------------|----------------------------------------|
|-----------------------------------------|----------------------------------------|
|-----------------------------------------|----------------------------------------|
|
| E  a      E  +Q     +Q     E  a      E    E  a      E  +Q     +Q     E  a      E
|-----------------------------------------|----------------------------------------|
|----8b10===8--(8)----(8)r------8b10===8r-|----8b10===8--(8)----(8)r------8b10===8-|
|-----------------------------------------|----------------------------------------|
|-----------------------------------------|----------------------------------------|
|-----------------------------------------|----------------------------------------|
|-----------------------------------------|----------------------------------------|
|
| PM--------------------------------------------------------------------------------
| e         e   e  e   e   e e         e    e         e   e  e   e   e e         e
|-----------------------------------------|----------------------------------------|
|-----------------------------------------|----------------------------------------|
|-----------------------------------------|----------------------------------------|
|-2---------2---2--2---2---2-2---------2--|-2---------2---2--2---2---2-2---------2-|
|-0---------0---0--0---0---0-0---------0--|-0---------0---0--0---0---0-0---------0-|
|-----------------------------------------|----------------------------------------|


                                              ~~~~
   +E    E  E  E E  E  E E     +E   E  E  E  +Q    E  E
|----------------------------|--------------------------|
|-(12)r-12-10----------------|--------------------------|
|-------------12-8----10-8---|-(8)----------------------|
|------------------10--------|-----10-10-10-(10)---8-10-|
|----------------------------|--------------------------|
|----------------------------|--------------------------|
|
|                                             ~~~~
|  +E    E  E  E E  E  E E     +Q      E  E  +Q    E  E
|----------------------------|--------------------------|
|--(8)r--8--7--5-------------|--------------------------|
|----------------5-----7-5b7r|=(5)----------------------|
|-------------------7--------|---------7--7--(7)---5--7-|
|----------------------------|--------------------------|
|----------------------------|--------------------------|
|
|----------------------------------------------------|
|   e    e  e  e e  e  e e      e   e  e  e   e  e e  e
|----------------------------|--------------------------|
|----------------------------|--------------------------|
|----------------------------|--------------------------|
|---2----2--2--2-2--2--2-2---|--2---2--2--2---2--2-2--2-|
|---0----0--0--0-0--0--0-0---|--0---0--0--0---0--0-0--0-|
|----------------------------|--------------------------|


  A
  E  E E E  E E E  E   E  E E E  E E E  E   a     Q.     a     E +Q     a     Q
|--------------------|--------------------|----------------------------------------|
|--------------------|--------------------|-8b10==8r-----8b10==8-(8)r---8b10==8r---|
|-8------8------8----|-8------8------8----|----------------------------------------|
|---10-8---10-8---10-|---10-8---10-8---10-|----------------------------------------|
|--------------------|--------------------|----------------------------------------|
|--------------------|--------------------|----------------------------------------|
|
| E  E E E  E E E  E   E  E E E  E E E  E   a     Q.     a     E +Q     a     Q
|--------------------|--------------------|----------------------------------------|
|--------------------|--------------------|-8b10==8r-----8b10==8-(8)r---8b10==8r---|
|-5------5------5----|-5------5------5----|----------------------------------------|
|----7-5----7-5----7-|----7-5----7-5----7-|----------------------------------------|
|--------------------|--------------------|----------------------------------------|
|--------------------|--------------------|----------------------------------------|
|
| PM--------------------------------------------------------------------------------
| e  e e e  e e e  e   e  e e e  e e e  e         e  e e       e  e   e       e  e
|--------------------|--------------------|----------------------------------------|
|--------------------|--------------------|----------------------------------------|
|--------------------|--------------------|----------------------------------------|
|-2--2-2-2--2-2-2--2-|-2--2-2-2--2-2-2--2-|-------2--2-2-------2--2---2-------2--2-|
|-0--0-0-0--0-0-0--0-|-0--0-0-0--0-0-0--0-|-------0--0-0-------0--0---0-------0--0-|
|--------------------|--------------------|----------------------------------------|


  a     Q    a     Q    a     Q    a     E  a     +E
|-------------------------------------------8b10==(8)--||
|-8b10==8r---8b10==8r---8b10==8r---8b10==8r------------||
|------------------------------------------------------||
|------------------------------------------------------||
|------------------------------------------------------||
|------------------------------------------------------||
|
| a     Q    a     Q    a     Q    a     E  a     +E
|-------------------------------------------8b10==(8)--||
|-8b10==8r---8b10==8r---8b10==8r---8b10==8r------------||
|------------------------------------------------------||
|------------------------------------------------------||
|------------------------------------------------------||
|------------------------------------------------------||
|
|-------------------------------------------------|
|       e  e       e  e       e  e       e         e
|------------------------------------------------------||
|------------------------------------------------------||
|------------------------------------------------------||
|-------2--2-------2--2-------2--2-------2---------2---||
|-------0--0-------0--0-------0--0-------0---------0---||
|------------------------------------------------------||


  Dm
             ~                            ~
  +E   E E E Q   E a     +E    +E   E E E Q   E a     +E
|-(8)r-8-5---------8b10==(8)-|-(8)r-8-5---------8b10==(8)-|
|----------6-----------------|----------6-----------------|
|------------7---------------|------------7---------------|
|----------------------------|----------------------------|
|----------------------------|----------------------------|
|----------------------------|----------------------------|
|
|            ~                            ~
| +E   E E E Q   E a     +E    +E   E E E Q   E a     +E
|-(8)r-8-5---------8b10==(8)-|-(8)r-8-5---------8b10==(8)-|
|----------6-----------------|----------6-----------------|
|------------7---------------|------------7---------------|
|----------------------------|----------------------------|
|----------------------------|----------------------------|
|----------------------------|----------------------------|
|
|  PM------------------------------------------------------
|  e   e e e e e e        e     e   e e e e e e        e
|----------------------------|----------------------------|
|----------------------------|----------------------------|
|----------------------------|----------------------------|
|--7---7-7-7-7-7-7--------7--|--7---7-7-7-7-7-7--------7--|
|--5---5-5-5-5-5-5--------5--|--5---5-5-5-5-5-5--------5--|
|----------------------------|----------------------------|


  Gm
             ~                            ~
  +E   E E E Q   E a     +E    +E   E E E Q   E  a      +E
|-(8)r-8-6---------8b10==(8)-|-(8)r-8-6---------10b12==(10)-|
|----------8-----------------|----------8-------------------|
|------------7---------------|------------7-----------------|
|----------------------------|------------------------------|
|----------------------------|------------------------------|
|----------------------------|------------------------------|
|
|            ~                            ~
| +E   E E E Q   E a     +E    +E   E E E Q   E  a      +E
|-(8)r-8-6---------8b10==(8)-|-(8)r-8-6---------10b12==(10)-|
|----------8-----------------|----------8-------------------|
|------------7---------------|------------7-----------------|
|----------------------------|------------------------------|
|----------------------------|------------------------------|
|----------------------------|------------------------------|
|
|------------------------------------------------------|
|  e   e e e e e e        e     e   e e e e e e          e
|----------------------------|------------------------------|
|----------------------------|------------------------------|
|----------------------------|------------------------------|
|----------------------------|------------------------------|
|--5---5-5-5-5-5-5--------5--|--5---5-5-5-5-5-5----------5--|
|--3---3-3-3-3-3-3--------3--|--3---3-3-3-3-3-3----------3--|


  C
               ~                                ~~~
   +E    E E E Q  E  a      +E     +E    E E E  Q   Q
|-(10)r-10-8--------10b12==(10)-|-(10)r-10-8-----------|
|------------8------------------|------------8---------|
|--------------9----------------|---------------9------|
|-------------------------------|----------------------|
|-------------------------------|----------------------|
|-------------------------------|----------------------|
|
|              ~                                ~~~
|  +E    E E E Q  E  a      +E     +E    E E E  Q   Q
|-(10)r-10-8--------10b12==(10)-|-(10)r-10-8-----------|
|------------8------------------|------------8---------|
|--------------9----------------|---------------9------|
|-------------------------------|----------------------|
|-------------------------------|----------------------|
|-------------------------------|----------------------|
|
|   W                               H           H
|-------------------------------|----------------------|
|-------------------------------|----------------------|
|-------------------------------|---------------5------|
|-------------------------------|---5------------------|
|---3---------------------------|--(3)---------(3)-----|
|-------------------------------|----------------------|
    W


  A
   Q.     E  Q     Q     Q     Q   Q     E  a      +E
|-12--------13--------|-14--------15-------13b15==(13)---|
|-15b17-----16b18-----|-17b19-----18b20------------------|
|---------------------|----------------------------------|
|---------------------|----------------------------------|
|---------------------|----------------------------------|
|---------------------|----------------------------------|
|
|  Q.     E  Q     Q     Q     Q   Q     E  a      +E
|--5---------6--------|--7---------8--------8b10===(8)---|
|--8b10------9b11-----|-10b12-----11b13------------------|
|---------------------|----------------------------------|
|---------------------|----------------------------------|
|---------------------|----------------------------------|
|---------------------|----------------------------------|
|
|  H         H           H         H
|---------------------|----------------------------------|
|---------------------|----------------------------------|
|---------------------|----------------------------------|
|--2---------2--------|--2---------2---------------------|
|--0---------0--------|--0---------0---------------------|
|---------------------|----------------------------------|


  Dm
                  ~~                                  ~~
   +E    E  E  E  Q   E  a      +E     +E    E  E  E  E  E    E  a      +E
|-(13)r-13-10-----------13b15==(13)-|-(13)r-13-10-------13b15---13b15==(13)-|
|-------------10--------------------|-------------10------------------------|
|----------------10-----------------|----------------10---------------------|
|-----------------------------------|---------------------------------------|
|-----------------------------------|---------------------------------------|
|-----------------------------------|---------------------------------------|
|
|                 ~~                                  ~~
|  +E    E  E  E  Q   E  a      +E     +E    E  E  E  E  E    E  a      +E
|--(8)r--8--5------------8b10===(8)-|--(8)r--8--5--------8b10----8b10===(8)-|
|--------------6--------------------|--------------6------------------------|
|-----------------7-----------------|-----------------7---------------------|
|-----------------------------------|---------------------------------------|
|-----------------------------------|---------------------------------------|
|-----------------------------------|---------------------------------------|
|
|   PM-----------------------------------------------------------------------
|   e    e  e  e  e e e          e      e    e  e  e  e  e    e          e
|-----------------------------------|---------------------------------------|
|-----------------------------------|---------------------------------------|
|-----------------------------------|---------------------------------------|
|---7----7--7--7--7-7-7----------7--|---7----7--7--7--7--7----7----------7--|
|---5----5--5--5--5-5-5----------5--|---5----5--5--5--5--5----5----------5--|
|-----------------------------------|---------------------------------------|


  Gm
                  ~~                                  ~~
   +E    E  E  E  Q   E  a      +E     +E    E  E  E  E  E    E  a      +E
|-(13)r-13-10-----------13b15==(13)-|-(13)r-13-10-------13b15---13b15==(13)-|
|-------------11--------------------|-------------11------------------------|
|----------------12-----------------|----------------12---------------------|
|-----------------------------------|---------------------------------------|
|-----------------------------------|---------------------------------------|
|-----------------------------------|---------------------------------------|
|
|                 ~~                                  ~~
|  +E    E  E  E  Q   E  a      +E     +E    E  E  E  E  E    E  a      +E
|--(8)r--8--6------------8b10===(8)-|--(8)r--8--6-------10b12---10b12==(10)-|
|--------------8--------------------|--------------8------------------------|
|-----------------7-----------------|-----------------7---------------------|
|-----------------------------------|---------------------------------------|
|-----------------------------------|---------------------------------------|
|-----------------------------------|---------------------------------------|
|
|----------------------------------------------------------------------|
|   e    e  e  e  e e e          e      e    e  e  e  e  e    e          e
|-----------------------------------|---------------------------------------|
|-----------------------------------|---------------------------------------|
|-----------------------------------|---------------------------------------|
|-----------------------------------|---------------------------------------|
|---5----5--5--5--5-5-5----------5--|---5----5--5--5--5--5----5----------5--|
|---3----3--3--3--3-3-3----------3--|---3----3--3--3--3--3----3----------3--|


  C
                  ~~                                  ~~
   +E    E  E  E  Q   E  a      +E     +E    E  E  E  Q   Q
|-(13)r-13-12-----------15b17==(15)-|-(15)r-15-12-------------|
|-------------13--------------------|-------------13----------|
|----------------12-----------------|----------------12-------|
|-----------------------------------|-------------------------|
|-----------------------------------|-------------------------|
|-----------------------------------|-------------------------|
|
|                 ~~                                  ~~
|  +E    E  E  E  Q   E  a      +E     +E    E  E  E  Q   Q
|-(10)r-10--8-----------10b12==(10)-|-(10)r-10--8-------------|
|--------------8--------------------|--------------8----------|
|-----------------9-----------------|-----------------9-------|
|-----------------------------------|-------------------------|
|-----------------------------------|-------------------------|
|-----------------------------------|-------------------------|
|
|   PM---------------------------------------------------------
|   e    e  e  e  e e e          e      e    e  e  e  e e e e
|-----------------------------------|-------------------------|
|-----------------------------------|-------------------------|
|-----------------------------------|-------------------------|
|---5----5--5--5--5-5-5----------5--|---5----5--5--5--5-5-5-5-|
|---3----3--3--3--3-3-3----------3--|---3----3--3--3--3-3-3-3-|
|-----------------------------------|-------------------------|


  A
   H           H             H           H
|-12----------13----------|-14----------15----------||
|-15b17-------16b18-------|-17b19-------18b20-------||
|-------------------------|-------------------------||
|-------------------------|-------------------------||
|-------------------------|-------------------------||
|-------------------------|-------------------------||
|
|  H           H             H           H
|--5-----------6----------|--7-----------8----------||
|--8b10--------9b11-------|-10b12-------11b13-------||
|-------------------------|-------------------------||
|-------------------------|-------------------------||
|-------------------------|-------------------------||
|-------------------------|-------------------------||
|
|-------------------------------------------------|
|  e    e e e  e    e e e    e    e e e  e    e e e
|-------------------------|-------------------------||
|-------------------------|-------------------------||
|-------------------------|-------------------------||
|--2----2-2-2--2----2-2-2-|--2----2-2-2--2----2-2-2-||
|--0----0-0-0--0----0-0-0-|--0----0-0-0--0----0-0-0-||
|-------------------------|-------------------------||


    Dm
    S  S  S  S S  S  S  S S  S  S  S S  S  S  S
||--8-10-12-12-8-10-12-12-8-10-12-12-8-10-12-12-|
||o---------------------------------------------|
||----------------------------------------------|
||----------------------------------------------|
||o---------------------------------------------|
||----------------------------------------------|
|
|   S  S  S  S S  S  S  S S  S  S  S S  S  S  S
||--5--6--8--8-5--6--8--8-5--6--8--8-5--6--8--8-|
||o---------------------------------------------|
||----------------------------------------------|
||----------------------------------------------|
||o---------------------------------------------|
||----------------------------------------------|
|
|   H                     H
||----------------------------------------------|
||o---------------------------------------------|
||----------------------------------------------|
||------------------------7---------------------|
||o-5-------------------------------------------|
||----------------------------------------------|
    W


  S  S  S  S S  S  S  S S  S  S  S S  S  S  S
|-8-10-12-12-8-10-12-12-8-10-12-12-8-10-12-12--|
|----------------------------------------------|
|----------------------------------------------|
|----------------------------------------------|
|----------------------------------------------|
|----------------------------------------------|
|
| S  S  S  S S  S  S  S S  S  S  S S  S  S  S
|-5--6--8--8-5--6--8--8-5--6--8--8-5--6--8--8--|
|----------------------------------------------|
|----------------------------------------------|
|----------------------------------------------|
|----------------------------------------------|
|----------------------------------------------|
|
| H                     Q          Q
|----------------------------------------------|
|----------------------------------------------|
|----------------------------------------------|
|----------------------------------------------|
|-5---------------------0----------3-----------|
|----------------------------------------------|


  Gm
   S  S  S  S  S  S  S  S  S  S  S  S  S  S  S  S
|-10-12-13-13-10-12-13-13-10-12-13-13-10-12-13-13-|
|-------------------------------------------------|
|-------------------------------------------------|
|-------------------------------------------------|
|-------------------------------------------------|
|-------------------------------------------------|
|
|  S  S  S  S  S  S  S  S  S  S  S  S  S  S  S  S
|--6--8-10-10--6--8-10-10--6--8-10-10--6--8-10-10-|
|-------------------------------------------------|
|-------------------------------------------------|
|-------------------------------------------------|
|-------------------------------------------------|
|-------------------------------------------------|
|
|  H                       H
|-------------------------------------------------|
|-------------------------------------------------|
|-------------------------------------------------|
|-------------------------------------------------|
|--------------------------5----------------------|
|--3----------------------------------------------|
   W


   S   S  S  S  S  S  S  S  S  S  S  S  S  S  S  S
|-10--12-13-13-10-12-13-13-10-12-13-13-10-12-13-13-|
|--------------------------------------------------|
|--------------------------------------------------|
|--------------------------------------------------|
|--------------------------------------------------|
|--------------------------------------------------|
|
|  S   S  S  S  S  S  S  S  S  S  S  S  S  S  S  S
|--6---8-10-10--6--8-10-10--6--8-10-10--6--8-10-10-|
|--------------------------------------------------|
|--------------------------------------------------|
|--------------------------------------------------|
|--------------------------------------------------|
|--------------------------------------------------|
|
|  H                        H
|--------------------------------------------------|
|--------------------------------------------------|
|--------------------------------------------------|
|--------------------------------------------------|
|---------------------------5----------------------|
|--3------------------------------------3----------|
   H.                                   Q


  C
   S  S  S  S  S  S  S  S  S  S  S  S  S  S  S  S
|-12-13-15-15-12-13-15-15-12-13-15-15-12-13-15-15-|
|-------------------------------------------------|
|-------------------------------------------------|
|-------------------------------------------------|
|-------------------------------------------------|
|-------------------------------------------------|
|
|  S  S  S  S  S  S  S  S  S  S  S  S  S  S  S  S
|--8-10-12-12--8-10-12-12--8-10-12-12--8-10-12-12-|
|-------------------------------------------------|
|-------------------------------------------------|
|-------------------------------------------------|
|-------------------------------------------------|
|-------------------------------------------------|
|
|  H                       H
|-------------------------------------------------|
|-------------------------------------------------|
|-------------------------------------------------|
|--5-----------------------5----------------------|
|--3----------------------------------------------|
|-------------------------------------------------|
   W


   S   S  S  S  S  S  S  S  S  S  S  S  S  S  S  S
|-12--13-15-15-12-13-15-15-12-13-15-15-12-13-15-15-|
|--------------------------------------------------|
|--------------------------------------------------|
|--------------------------------------------------|
|--------------------------------------------------|
|--------------------------------------------------|
|
|  S   S  S  S  S  S  S  S  S  S  S  S  S  S  S  S
|--8--10-12-12--8-10-12-12--8-10-12-12--8-10-12-12-|
|--------------------------------------------------|
|--------------------------------------------------|
|--------------------------------------------------|
|--------------------------------------------------|
|--------------------------------------------------|
|
| +H.                                   Q
|--------------------------------------------------|
|--------------------------------------------------|
|--------------------------------------------------|
|-(5)-----------------------------------5----------|
|-(3)-----------------------------------3----------|
|--------------------------------------------------|


  A
    S S S S  S  S S S  S  S S S  S  S S S
|-/17-0-0-0-16-15-0-0-15-14-0-0-14-13-0-0-|
|-----------------------------------------|
|-----------------------------------------|
|-----------------------------------------|
|-----------------------------------------|
|-----------------------------------------|
|
|   S S S S  S  S S S  S  S S S  S  S S S
|-/17-0-0-0-16-15-0-0-15-14-0-0-14-13-0-0-|
|-----------------------------------------|
|-----------------------------------------|
|-----------------------------------------|
|-----------------------------------------|
|-----------------------------------------|
|
|   PM-------------------------------------
|   e   e    e    e    e    e    e    e
|-----------------------------------------|
|-----------------------------------------|
|-----------------------------------------|
|---2---2----2----2----2----2----2----2---|
|---0---0----0----0----0----0----0----0---|
|-----------------------------------------|


   S  S S S  S  S S S  S  S S S  S S S S
|-13-12-0-0-12-11-0-0-11-10-0-0-10-9-0-0--||
|----------------------------------------o||
|-----------------------------------------||
|-----------------------------------------||
|----------------------------------------o||
|-----------------------------------------||
|
|  S  S S S  S  S S S  S  S S S  S S S S
|-13-12-0-0-12-11-0-0-11-10-0-0-10-9-0-0--||
|----------------------------------------o||
|-----------------------------------------||
|-----------------------------------------||
|----------------------------------------o||
|-----------------------------------------||
|
|------------------------------------|
|  e    e    e    e    e    e    e   e
|-----------------------------------------||
|----------------------------------------o||
|-----------------------------------------||
|--2----2----2----2----2----2----2---2----||
|--0----0----0----0----0----0----0---0---o||
|-----------------------------------------||


  A
    S  S S S  S  S S S  S  S S S  S  S S S
|-/17--0-0-0-16-15-0-0-15-14-0-0-14-13-0-0-|
|------------------------------------------|
|------------------------------------------|
|------------------------------------------|
|------------------------------------------|
|------------------------------------------|
|
|   S  S S S  S  S S S  S  S S S  S  S S S
|--12-11-0-0-11-10-0-0-10--9-0-0--9--8-0-0-|
|------------------------------------------|
|------------------------------------------|
|------------------------------------------|
|------------------------------------------|
|------------------------------------------|
|
|   PM--------------------------------------
|   e    e    e    e    e    e    e    e
|------------------------------------------|
|------------------------------------------|
|------------------------------------------|
|---2----2----2----2----2----2----2----2---|
|---0----0----0----0----0----0----0----0---|
|------------------------------------------|


   S  S S S  S  S S S  S  S S S  S S S S
|-13-12-0-0-12-11-0-0-11-10-0-0-10-9-0-0-|
|----------------------------------------|
|----------------------------------------|
|----------------------------------------|
|----------------------------------------|
|----------------------------------------|
|
|  S  S S S  S  S S S  S  S S S  S S S S
|--8--7-0-0--7--6-0-0--6--5-0-0--5-4-0-0-|
|----------------------------------------|
|----------------------------------------|
|----------------------------------------|
|----------------------------------------|
|----------------------------------------|
|
|------------------------------------|
|  e    e    e    e    e    e    e   e
|----------------------------------------|
|----------------------------------------|
|----------------------------------------|
|--2----2----2----2----2----2----2---2---|
|--0----0----0----0----0----0----0---0---|
|----------------------------------------|


  A
  S S S S S S S S S S S S S S S S   S S S S S S S S S S S S S S S S
|-9-8-0-0-8-7-0-0-7-6-0-0-6-5-0-0-|-4-0-0-0-5-0-0-0-6-0-0-0-7-0-0-0-|
|---------------------------------|---------------------------------|
|---------------------------------|---------------------------------|
|---------------------------------|---------------------------------|
|---------------------------------|---------------------------------|
|---------------------------------|---------------------------------|
|
| S S S S S S S S S S S S S S S S   S S S S S S S S S S S S S S S S
|-4-3-0-0-3-2-0-0-2-0-0-0-3-0-0-0-|-4-0-0-0-5-0-0-0-6-0-0-0-7-0-0-0-|
|---------------------------------|---------------------------------|
|---------------------------------|---------------------------------|
|---------------------------------|---------------------------------|
|---------------------------------|---------------------------------|
|---------------------------------|---------------------------------|
|
| PM------------------------------------------------------------|
| e   e   e   e   e   e   e   e     e   e   e   e   e   e   e   e
|---------------------------------|---------------------------------|
|---------------------------------|---------------------------------|
|---------------------------------|---------------------------------|
|-2---2---2---2---2---2---2---2---|-2---2---2---2---2---2---2---2---|
|-0---0---0---0---0---0---0---0---|-0---0---0---0---0---0---0---0---|
|---------------------------------|---------------------------------|


  A
  a    Q.     a    E +H          a    Q.     a    E +Q    E a     E
|------------------------------|------------------------------------|
|-8b10-8------8b10-8-(8)-------|-8b10-8------8b10-8-(8)-----8b10==8-|
|------------------------------|------------------------------------|
|------------------------------|------------------------------------|
|------------------------------|------------------------------------|
|------------------------------|------------------------------------|
|
| a    Q    E      E  E  E E E        E  E E      E  Q    E a     E
|-----------5------------------|------------------------------------|
|-8b10-8-----------8--7--5-----|----------------------------8b10==8-|
|--------------------------8-7-|------5----7------5-----------------|
|------------------------------|---------7-----------7--------------|
|------------------------------|------------------------------------|
|------------------------------|------------------------------------|
|
|      PM------------------------------------------------------------
|      e  e e      e  e  e e e        e  e e      e  e  e e       e
|------------------------------|------------------------------------|
|------------------------------|------------------------------------|
|------------------------------|------------------------------------|
|------2--2-2------2--2--2-2-2-|------2--2-2------2--2--2-2-------2-|
|------0--0-0------0--0--0-0-0-|------0--0-0------0--0--0-0-------0-|
|------------------------------|------------------------------------|


                                 D.S.S. al Dbl. Coda
                                            C     Bb
                                            \2
                         ~~~~~~~~~~~        ~~
  +E   E E E E E E E   E Q.     +Q    E E   W
|--------------------|--------------------|-------------||
|-(8)r-8-7-5---------|--------------------|-------------||
|------------8-7-5---|-7-5------(5)---5---|-5-----------||
|------------------7-|------------------7-|-------------||
|--------------------|--------------------|-------------||
|--------------------|--------------------|-------------||
|
|                                           ~~
| +E   E E E E E E E   E E  E E  Q    Q     W
|--------------------|--------------------|-------------||
|-(8)r-8-7-5---------|--------------------|-------------||
|------------8-7-5---|-7-5------------5---|-5-----------||
|------------------7-|------7-5--7--------|-------------||
|--------------------|--------------------|-------------||
|--------------------|--------------------|-------------||
|
|                                         Gtrs II, IV
|---------------------------------------|
|  e   e e e e e e e   e e  e e  e  e e e   H     H
|--------------------|--------------------|-------------||
|--------------------|--------------------|-------------||
|--------------------|--------------------|-0-----------||
|--2---2-2-2-2-2-2-2-|-2-2--2-2--2--2-2-2-|-2-----3-----||
|--0---0-0-0-0-0-0-0-|-0-0--0-0--0--0-0-0-|-3-----5-----||
|--------------------|--------------------|-------6-----||


  &&
  F    G       A         C       D         F       G         A         C
  Gtr I
  Q.   E +Q.   E   +Q.   E +Q.   E   +Q.   E +Q.   E   +Q.    E  +Q.   E
|----------------|-----------------|-----------------|-----------------8-|
|----------------|-----------------|-------6-(6)---8-|-(8)---10-(10)-----|
|----------------|-------5-(5)---7-|-(7)-------------|-------------------|
|-3----5-(5)---7-|-(7)-------------|-----------------|-------------------|
|----------------|-----------------|-----------------|-------------------|
|----------------|-----------------|-----------------|-------------------|
|
| Gtr II
| Q.   E +Q.   E   +Q.   E +Q.   E   +Q.   E +Q.   E   +Q.    E  +Q.   E
|--------------0-|-(0)-------------|-----------------|--------0--(0)---0-|
|-1----3-(3)---2-|-(2)---1-(1)---3-|-(3)---1-(1)---3-|-(3)----2--(2)---1-|
|-2----4-(4)---2-|-(2)---0-(0)---2-|-(2)---2-(2)---4-|-(4)----2--(2)---0-|
|-3----5-(5)-----|-------2-(2)---4-|-(4)---3-(3)---5-|-(5)---------------|
|----------------|-----------------|-----------------|-------------------|
|----------------|-----------------|-----------------|-------------------|


  C     D              F                 G                       A
  +Q.    E  +Q.   a    +E     Q   E a    +E   Q   a    +E  a     +E
|-(8)---10-(10)------------|-----------------------------------------||
|-----------------8b10-(8)-|--------8b10-(8)------8b10-(8)-8b10==(8)-||
|--------------------------|-----------------------------------------||
|--------------------------|-----------------------------------------||
|--------------------------|-----------------------------------------||
|--------------------------|-----------------------------------------||
|
|                                                                Gtrs I
| +Q.    E  +Q.         E    +Q.          E  +Q.                  E
|-(0)----2--(2)---------1--|-(1)----------------------------------0--||
|-(1)----3--(3)---------1--|-(1)----------3--(3)------------------2--||
|-(0)----2--(2)---------2--|-(2)----------4--(4)------------------2--||
|--------------------------|--------------5--(5)------------------2--||
|--------------------------|--------------------------------------4--||
|--------------------------|--------------------------------------5--||


 Outro (FREE TIME)
  +H      a    +H       a    +Q   E E E E E E
|---------------------|-----------------------|
|-(8)r----8b10-(8)----|-8b10-(8)--8-7-5-------|
|---------------------|-----------------8-7-8-|
|---------------------|-----------------------|
|---------------------|-----------------------|
|---------------------|-----------------------|
|
|I, IV
| +W                         +W
|-(0)-----------------|------(0)--------------|
|-(2)-----------------|------(2)--------------|
|-(2)-----------------|------(2)--------------|
|-(2)-----------------|------(2)--------------|
|-(4)-----------------|------(4)--------------|
|-(5)-----------------|------(5)--------------|


                                                    H.=H
  A
   E  E E E E E E E    E  E E E H      +W           +W
|-------------------|----------------|------------|-------------|
|-------------------|----------------|------------|-------------|
|-----7-5-----------|----------------|------------|-------------|
|--7------7-5---7-5-|----------------|------------|-------------|
|-------------7-----|--7--6-5-3-0----|-(0)--------|-(0)---------|
|-------------------|----------------|------------|-------------|
|
| +W                  +W               +W           +H     H
|-(0)---------------|-(0)------------|-(0)--------|-(0)---------|
|-(2)---------------|-(2)------------|-(2)--------|-(2)---------|
|-(2)---------------|-(2)------------|-(2)--------|-(2)---------|
|-(2)---------------|-(2)------------|-(2)--------|-(2)----2----|
|-(4)---------------|-(4)------------|-(4)--------|-(4)----0----|
|-(5)---------------|-(5)------------|-(5)--------|-(5)---------|


    A
    +W           +W           +W           +W             Q  Q  H
||-------------|------------|------------|-------------||------------*|
||o------------|------------|------------|------------o||------------*|
||-------------|------------|------------|-------------||------------*|
||-------------|------------|------------|-------------||------------*|
||o-(0)--------|-(0)--------|-(0)--------|-(0)--------o||-0----------*|
||-------------|------------|------------|-------------||------------*|
|
|   +W           +W           +W           +W             W
||-------------|------------|------------|-------------||------------*|
||o------------|------------|------------|------------o||------------*|
||-------------|------------|------------|-------------||------------*|
||--(2)--------|-(2)--------|-(2)--------|-(2)---------||------------*|
||o-(0)--------|-(0)--------|-(0)--------|-(0)--------o||------------*|
||-------------|------------|------------|-------------||------------*|


Duration Legend
---------------
W - whole; H - half; Q - quarter; E - 8th; S - 16th; T - 32nd; X - 64th; a - acciaccatura
+ - note tied to previous; . - note dotted; .. - note double dotted
Uncapitalized letters represent notes that are staccato (1/2 duration)
Irregular groupings are notated above the duration line
Duration letters will always appear directly above the note/fret number it represents the
duration for.  Duration letters with no fret number below them represent rests.  Multi-
bar rests are notated in the form Wxn, where n is the number of bars to rest for.  Low
melody durations appear below the staff

Tablature Legend
----------------
 h   - hammer-on
 p   - pull-off
 b   - bend
 pb  - pre-bend
 r   - bend release (if no number after the r, then release immediately)
 /\  - slide into or out of (from/to "nowhere")
 s   - legato slide
 S   - shift slide
 - natural harmonic
[n]  - artificial harmonic
n(n) - tapped harmonic
 ~   - vibrato
 tr  - trill
 T   - tap
 TP  - trem. picking
 PM  - palm muting
\n/  - tremolo bar dip; n = amount to dip
 \n  - tremolo bar down
 n/  - tremolo bar up
/n\  - tremolo bar inverted dip
 =   - hold bend; also acts as connecting device for hammers/pulls
 <> - volume swell (louder/softer)
 x   - on rhythm slash represents muted slash
 o   - on rhythm slash represents single note slash

Misc Legend
-----------
 |  - bar
||  - double bar
||o - repeat start
o|| - repeat end
*|  - double bar (ending)
 :  - bar (freetime)
 $  - Segno
 &  - Coda
Tempo markers -  = BPM(8/16=s8/s16), where s8 = swing 8ths, s16 = swing 16ths

            
            
Suggest correction
Creating personal tab
Creating personal tab
You can edit any tab online and save it as your Personal.

You can edit, replace or remove any tab part or add personal notes – all changes will be seen only by you.

Personal tabs can be accessed anytime from any device, even offline.
Learn more »
Give kudos to tab author, rate the tab!
1 2 3 4 5
comments
print report bad tab
guest
You may want to rate the tab now too:
select rating
Wanna post a correction for this tab? Suggest correction