Oops, an error
Loading. Please wait.
We have an official Highway Star tab made by UG professional guitarists. Check out the tab »
×

Highway Star solo tab

version 3
version 3

Solo

  • The tabs for the solo harmony don't seem to exist anywhere.
  • This is Jon Lord's Hammond Organ Solo arranged for guitar.

Whole song

61,954 views 216 this week
8 commentsread comments
1 2 3 4 5
x 22
add to favorites
×
Save as Personal and add changes to this tab that will be seen only by you. Learn more ›
×
You can save this tab as Personal to edit and correct it or add notes. All changes will be seen only by you. Learn more »
launch autoscroll
font size
0
reset
how to read this tab
guitar tuner
backing track
0:00
0:00
edit
Autoscroll
slow
fast
+/-
esc
set tempo
stop
Author
Highway Star by Deep Purple

Autor:DoubleC

This is the first tab i made so it may have some errors.


[Solo]

E|---------------------------------|---------------------------------|
B|----------13^--------------------|----------13^--------------------|
G|------10-------------------------|------10-------10----------------|
D|--12-----------------------------|--12-----------------------------|
A|---------------------------------|---------------------------------|
E|---------------------------------|---------------------------------|

E|----------12^------------12--10--|---------------------------------|
B|-----10--------------------------|--13-----------------------------|
G|-10------------------------------|------10------12(10)-------------|
D|---------------------------------|----------12---------------------|
A|---------------------------------|---------------------------------|
E|---------------------------------|---------------------------------|

E|---------------------------------|---------------------------------|
B|----------13^--------------------|----------13^--------------------|
G|------10-------------------------|------10-------10----------------|
D|--12-----------------------------|--12-----------------------------|
A|---------------------------------|---------------------------------|
E|---------------------------------|---------------------------------|

E|----------12^------------12--10--|---------------------------------|
B|-----10--------------------------|--13-----------------------------|
G|-10------------------------------|------10------12(10)-------------|
D|---------------------------------|----------12---------------------|
A|---------------------------------|---------------------------------|
E|---------------------------------|---------------------------------|

E|---------------------------------|--10-----10----------------------|
B|--10----10-----------------------|--13^----13^---------------------|
G|--12^---12^----------------------|---------------------------------|
D|---------------------------------|---------------------------------|
A|---------------------------------|---------------------------------|
E|---------------------------------|---------------------------------|

E|---------------------------------|---------------------------------|
B|--8^--8--7--5--------------------|---------------------------------|
G|---------------7--5--------------|--7(5)---------------------------|
D|---------------------7-----------|--------7--7---------------------|
A|---------------------------------|---------------------------------|
E|---------------------------------|---------------------------------|

E|---------------------------------|---------------------------------|
B|---------------------------------|---------------------------------|
G|------------5^---------5^--------|--5^-----5^-------5^-------------|
D|--7--5--7-------7--5------7--5---|------7-----7--5------7--5-------|
A|---------------------------------|---------------------------------|
E|---------------------------------|---------------------------------|

E|---------------------------------|---------------------------------|
B|---------------------------------|---------------------------------|
G|--5^------12^---12^---12^--------|--12^--12^--12^--12^-------------|
D|-----7---------------------------|---------------------------------|
A|---------------------------------|---------------------------------|
E|---------------------------------|---------------------------------|

............

E|---------------------------------|---------------------------------|
B|---13^--13--10-------------------|---13^--13--10-------------------|
G|----------------10---------------|----------------10---------------|
D|--------------------12-----------|--------------------12-----------|
A|---------------------------------|---------------------------------|
E|---------------------------------|---------------------------------|

E|---------------------------------|---------------------------------|
B|---13^--13--11-------------------|---13^--13--11-------------------|
G|----------------12---------------|----------------12---------------|
D|--------------------12-----------|--------------------12-----------|
A|---------------------------------|---------------------------------|
E|---------------------------------|---------------------------------|

E|---------------------------------|---------------------------------|
B|---15^--15--13-------------------|---15^--15--13-------------------|
G|----------------12---------------|----------------12---------------|
D|--------------------14-----------|--------------------14-----------|
A|---------------------------------|---------------------------------|
E|---------------------------------|---------------------------------|

E|---------------------------------|
B|--10----11----12----13-----------|
G|--12^---13^---14^---15^----------|
D|---------------------------------| play it twice from 
A|---------------------------------|
E|---------------------------------|

E|-------------------------------------------------|
B|-10-11-13-13-10-11-13-13-10-11-13-13-10-11-13-13-|
G|-------------------------------------------------|.......x2
D|-------------------------------------------------|
A|-------------------------------------------------|
E|-------------------------------------------------|

E|-------------------------------------------------|
B|-11-13-15-15-11-13-15-15-11-13-15-15-11-13-15-15-|
G|-------------------------------------------------|.......x2
D|-------------------------------------------------|
A|-------------------------------------------------|
E|-------------------------------------------------|

E|-------------------------------------------------|
B|-13-15-17-17-13-15-17-17-13-15-17-17-13-15-17-17-|
G|-------------------------------------------------|.......x2
D|-------------------------------------------------|
A|-------------------------------------------------|
E|-------------------------------------------------|

E|-17-16-0-0--16-15-0-0--15-14-0-0--14-13-0-0------|
B|-------------------------------------------------|
G|-------------------------------------------------|
D|-------------------------------------------------|
A|-------------------------------------------------|
E|-------------------------------------------------|

E|-13-12-0-0--12-11-0-0--11-10-0-0--10-9-0-0-------|
B|-------------------------------------------------|
G|-------------------------------------------------|
D|-------------------------------------------------|
A|-------------------------------------------------|
E|-------------------------------------------------|

E|-------------------------------------------------|
B|-10-11-13-13-10-11-13-13-10-11-13-13-10-11-13-13-|
G|-------------------------------------------------|.......x2
D|-------------------------------------------------|
A|-------------------------------------------------|
E|-------------------------------------------------|

E|-------------------------------------------------|
B|-11-13-15-15-11-13-15-15-11-13-15-15-11-13-15-15-|
G|-------------------------------------------------|.......x2
D|-------------------------------------------------|
A|-------------------------------------------------|
E|-------------------------------------------------|

E|-------------------------------------------------|
B|-13-15-17-17-13-15-17-17-13-15-17-17-13-15-17-17-|
G|-------------------------------------------------|.......x2
D|-------------------------------------------------|
A|-------------------------------------------------|
E|-------------------------------------------------|

E|-17-16-0-0--16-15-0-0--15-14-0-0--14-13-0-0------|
B|-------------------------------------------------|
G|-------------------------------------------------|
D|-------------------------------------------------|
A|-------------------------------------------------|
E|-------------------------------------------------|

E|-13-12-0-0--12-11-0-0--11-10-0-0--10-9-0-0-------|
B|-------------------------------------------------|
G|-------------------------------------------------|
D|-------------------------------------------------|
A|-------------------------------------------------|
E|-------------------------------------------------|

E|-13-12-0-0--12-11-0-0--11-10-0-0--10-9-0-0-------|
B|-------------------------------------------------|
G|-------------------------------------------------|
D|-------------------------------------------------|
A|-------------------------------------------------|
E|-------------------------------------------------|

E|-9-8-0-0--8-7-0-0--7-6-0-0--6-5-0-0--------------|
B|-------------------------------------------------|
G|-------------------------------------------------|
D|-------------------------------------------------|
A|-------------------------------------------------|
E|-------------------------------------------------|

E|-5-4-0-0--6-5-0-0--7-6-0-0--8-7-0-0--------------|
B|-------------------------------------------------|
G|-------------------------------------------------|
D|-------------------------------------------------|
A|-------------------------------------------------|
E|-------------------------------------------------|

E|-9-8-0-0--10-9-0-0--11-10-0-0--12-11-0-0---------|
B|-------------------------------------------------|
G|-------------------------------------------------|
D|-------------------------------------------------|
A|-------------------------------------------------|
E|-------------------------------------------------|

E|----5----------------------------|----5----------------------------|
B|-8^---8-7-5----------------------|-8^---8-7-5----------------------|
G|------------7-5---7(5)-----------|------------7-5---7(5)--------5--|
D|----------------7-------7--5-----|----------------7-------7-5-7----|
A|---------------------------------|---------------------------------|
E|---------------------------------|---------------------------------|

E|---------------------------------|
B|---------------------------------|
G|-5----3--------------------------|
D|-5----3---5----------------------|
A|-3----1---5----------------------|
E|----------3----------------------|



************************************

| (n)  Ghost note 

************************************ 

            
            
Suggest correction
Creating personal tab
Creating personal tab
You can edit any tab online and save it as your Personal.

You can edit, replace or remove any tab part or add personal notes – all changes will be seen only by you.

Personal tabs can be accessed anytime from any device, even offline.
Learn more »
comments
print report bad tab
8 comments total. Showing first comments.
+2 reply
SolidShroom 20 Jun 15, 2009 11:02 PM

Best tab of this solo I've seen so far. Well done. Although I think it's worth noting that there's some extreme whammy usage at the end of the solo.

0 reply
ITZanna! 10 Aug 01, 2009 07:45 AM

I think that this tab is wonderful!:D It looks great.

0 reply
bassdemon77 31 Oct 28, 2009 06:01 PM

Good Job on the tab it works reall good

guest
You may want to rate the tab now too:
select rating
Wanna post a correction for this tab? Suggest correction