Oops, an error
Loading. Please wait.

Maybe Im A Leo tab

version 1
version 1

Whole song

  • My version has the complete guitar and organ parts.

Interactive

115 views 3 this week
no commentswrite comment
1 2 3 4 5
3 more votes to show rating
add to favorites
×
Save as Personal and add changes to this tab that will be seen only by you. Learn more ›
×
You can save this tab as Personal to edit and correct it or add notes. All changes will be seen only by you. Learn more »
launch autoscroll
font size
0
reset
how to read this tab
guitar tuner
backing track
0:00
0:00
edit
Autoscroll
slow
fast
+/-
esc
set tempo
stop
About this tab version
My version has the complete guitar and organ parts. Was this info helpful? Yes No
MAYBE I'M A LEO
As recorded by Deep Purple
(From the 1972 Album MACHINE HEAD)
Tablature (Tab) for Guitar
Words and Music by Blackmore / Gillan / Glover / Lord / Paice

Gtr I (E A D G B E) - 'Blackmore'

Gtr II (E A D G B E) - 'Lord'

Gtr III (E A D G B E) - 'Lord #2'


 Intro
  Moderately Slow Q=86(16=s16)
               F7
 4/4
  Gtr I
                                                                     ~~~
  W            E e S S e e E S    +S   E   +E  e S S e e e a    +E   E
e|----------||----------------------------|-----------------------------|
B|----------||o---------------------------|-----------------------------|
G|----------||----------------1b2==(1)r---|-----------------3b5==(3)r-1-|
D|----------||----3-3p1---1-3-----------3-|-(3)-3-3p1---1-3-------------|
A|----------||o---------3-----------------|-----------3-----------------|
E|----------||----------------------------|-----------------------------|
|
 | Gtr II
 | W            E E S S E E E E         E   +E  E S S E E E       E   E
e|----------||----------------------------|-----------------------------|
B|----------||o---------------1-----------|-----------------------3---1-|
G|----------||----2-2-0---0-2-1---------2-|-(2)-2-2-0---0-2-------3---1-|
D|----------||----3-3-1-2-1-3-----------3-|-(3)-3-3-1-2-1-3-------------|
A|----------||o---------3-----------------|-----------3-----------------|
E|----------||----------------------------|-----------------------------|
|
 | Gtr III
 | W            E E S S E E E E         E   +E  E S S E E E       E   E
e|----------||----------------------------|-----------------------------|
B|----------||o---------------1-----------|-----------------------3---1-|
G|----------||----2-2-0---0-2-1---------2-|-(2)-2-2-0---0-2-------3---1-|
D|----------||----3-3-1-2-1-3-----------3-|-(3)-3-3-1-2-1-3-------------|
A|----------||o---------3-----------------|-----------3-----------------|
E|----------||----------------------------|-----------------------------|


   C7                                Eb E
  ~~~~~
   +E  E S S e e e E E   +E  e S S E Q  Q
e|---------------------|---------------------|
B|---------------------|---------------------|
G|-(1)-----------------|---------------------|
D|-----------------1---|---------------------|
A|-----3-3p1---1-3---3-|-(3)-3-3p1---1--2----|
E|-----------3---------|-----------3---------|
|
 | +E  E S S E E E E E   +E  E S S E Q  Q
e|---------------------|---------------------|
B|-(1)-----------------|---------------------|
G|-(1)-------------0---|-------------0--1----|
D|-----2-2-0---0-2-1-2-|-(2)-2-2-0---1--2----|
A|-----3-3-1-1-1-3---3-|-(3)-3-3-1-1-1--2----|
E|-----------3---------|-----------3---------|
|
 | +E  E S S E E E E E   +E  E S S E Q  Q
e|-----0-0-------0-3-0-|-(0)-0-0-----3--4----|
B|-(1)-1-1-3---3-1-4-1-|-(1)-1-1-3---4--5----|
G|-(1)-----3-3-3-------|---------3-3-3--4----|
D|-----------5---------|-----------5---------|
A|---------------------|---------------------|
E|---------------------|---------------------|


   F7
                                                         ~
   E e S S e e E S    +S   E   +E  e S S e e e a    +E   E
e|---------------------------|-----------------------------|
B|---------------------------|-----------------------------|
G|---------------1b2==(1)r---|-----------------3b5==(3)r-1-|
D|---3-3p1---1-3-----------3-|-(3)-3-3p1---1-3-------------|
A|---------3-----------------|-----------3-----------------|
E|---------------------------|-----------------------------|
|
 | E E S S E E E E         E   +E  E S S E E E       E   E
e|---------------------------|-----------------------------|
B|---------------1-----------|-----------------------3---1-|
G|---2-2-0---0-2-1---------2-|-(2)-2-2-0---0-2-------3---1-|
D|---3-3-1-2-1-3-----------3-|-(3)-3-3-1-2-1-3-------------|
A|---------3-----------------|-----------3-----------------|
E|---------------------------|-----------------------------|
|
 | E E S S E E E E         E   +E  E S S E E E       E   E
e|---------------------------|-----------------------------|
B|---------------1-----------|-----------------------3---1-|
G|---2-2-0---0-2-1---------2-|-(2)-2-2-0---0-2-------3---1-|
D|---3-3-1-2-1-3-----------3-|-(3)-3-3-1-2-1-3-------------|
A|---------3-----------------|-----------3-----------------|
E|---------------------------|-----------------------------|


   C7                                Eb Bb
   +E  e S S e e e E E   +E  e S S E Q  Q
e|---------------------|-------------------||
B|---------------------|-------------------||
G|-(1)-----------------|-------------------||
D|-----------------1---|-------------1-----||
A|-----3-3p1---1-3---3-|-(3)-3-3p1------1--||
E|-----------3---------|-----------3-------||
|
 | +E  E S S E E E E E   +E  E S S E Q  Q
e|---------------------|-------------------||
B|-(1)-----------------|-------------------||
G|-(1)-------------0---|-------------0-----||
D|-----2-2-0---0-2-1-2-|-(2)-2-2-0---1--3--||
A|-----3-3-1-1-1-3---3-|-(3)-3-3-1-1-1--5--||
E|-----------3---------|-----------3----6--||
|
 | +E  E S S E E E E E   +E  E S S E Q  Q
e|-----0-0-------0-3-0-|-(0)-0-0-----3-----||
B|-(1)-1-1-3---3-1-4-1-|-(1)-1-1-3---4--3--||
G|-(1)-----3-3-3-------|---------3-3-3--3--||
D|-----------5---------|-----------5----3--||
A|---------------------|-------------------||
E|---------------------|-------------------||


  Verse
   $
   C7
     PM  PM----|           PM    PM    PM
   E E E E E E E E   +E    E E   E   E E E E
e|-----------------|-------------------------|
B|---------------4-|-(4)---------------------|
G|---------------3-|-(3)---------------------|
D|-----------------|-------------------------|
A|-3-3-3-3-3-3-3---|-------3-3---3---3-3-3-3-|
E|-----------------|-------------------------|
|
 | E e E E E E E E    S  S E S E   S E E Q
e|-----------------|-------------------------|
B|-----4---4-----4-|-----4---4-----4---4-----|
G|-----3---3-----3-|-----3---3-----3---3-----|
D|---5-------5-----|---------------------5---|
A|-----------------|-------------------------|
E|-----------------|-------------------------|
|
 | E E E E E Q   E    E    E E   E   E E E E
e|-----------------|-------------------------|
B|-----4---4-----4-|---------4-------4-4---4-|
G|-----3---3-----3-|---------3-------3-3---3-|
D|---5---5---5-----|-------5-----5-------5---|
A|-----------------|-------------------------|
E|-----------------|-------------------------|


                                         Eb Bb
    E  a e S S E E E E E    E  a e S S E Q  Q
e|-----------------------|----------------------|
B|-----------------------|----------------------|
G|-----------------------|----------------------|
D|-----3s5-3s1---1-3-----|-----3s5-3s1---1------|
A|-------------3-----1-3-|-------------3----1---|
E|-----------------------|----------------------|
|
 |  E    E S S E E E E E    E    E S S E Q  Q
e|-----------------------|----------------------|
B|-----------------------|---------------4--3---|
G|-----------------------|---------------3--3---|
D|-------5-3-1---1-3-----|-------5-3-1---5--3---|
A|-------------3-----1-3-|-------------3--------|
E|-----------------------|----------------------|
|
 | +E    E S S E E E E E   +E    E S S E Q  Q
e|-----------------------|----------------------|
B|-(4)---8-6-4---4-6-----|-------8-6-4---4--3---|
G|-(3)---------5-----3-5-|-(5)---------5-3--3---|
D|-----------------------|---------------5--3---|
A|-----------------------|----------------------|
E|-----------------------|----------------------|


   F7
     PM    PM    PM|           PM  PM      PM|
   E E E   E   E S S S S E   E E E E   E   S S S S E
e|-------------------------|-------------------------|
B|-------------------------|-------------------------|
G|-------------------------|-------------------------|
D|-----------------------3-|-----------------------1-|
A|-------------------1h3---|-------------------1h3---|
E|-1-1-1---1---1-1-1-------|-1-1-1-1---1---1-1-------|
|
 | E e S S S S E Q       E   Q   E S S S S E   Q
e|-------------------------|-------------------------|
B|-----4---4-4---3---------|-----4---6-----4---4-----|
G|-----5---5-5---3---------|-----5-5-7-----5---5-----|
D|---3-3---3-3---3---------|-----3-------3-3---3-----|
A|-------------------------|-------------------------|
E|-------------------------|-------------------------|
|
 | E E E   E   E Q       E   E E E E   E   Q       E
e|-------------------------|-------------------------|
B|-----4-------4-3---------|-----4-----4-----------4-|
G|-----5-------5-3---------|-----5-----5-----------5-|
D|---3-----3---------------|---3---3-------3---------|
A|-------------------------|-------------------------|
E|-------------------------|-------------------------|


   C7                                    Eb Bb
    E  a e S S E E E E E    E  a e S S E Q  Q
e|-----------------------|-----------------------|
B|-----------------------|-----------------------|
G|-----------------------|-----------------------|
D|-----3s5-3s1---1-3-----|-----3s5-3s1---1-------|
A|-------------3-----1-3-|-------------3----1----|
E|-----------------------|-----------------------|
|
 |  E    E S S E E E E E    E    E S S E Q  Q
e|-----------------------|-----------------------|
B|-----------------------|---------------4--3----|
G|-----------------------|---------------3--3----|
D|-------5-3-1---1-3-----|-------5-3-1---5--3----|
A|-------------3-----1-3-|-------------3---------|
E|-----------------------|-----------------------|
|
 | +E    E S S E E E E E   +E    E S S E Q  Q
e|-----------------------|-----------------------|
B|-(4)---8-6-4---4-6-----|-------8-6-4---4--3----|
G|-(5)---------5-----3-5-|-(5)---------5-3--3----|
D|-----------------------|---------------5--3----|
A|-----------------------|-----------------------|
E|-----------------------|-----------------------|


   G7                                   F    Eb   Bb
     PM     PM            PM|
   E E   E  E      E      S S  S  S E   Q.   Q.   Q
e|------------------------------------|--------------|
B|------------------------------------|--------------|
G|------------------------------------|--------------|
D|----------------------------------3-|-3----1-------|
A|-------5---------------------3s=5---|-----------5--|
E|-3-3---3--3------3------3-3---------|--------------|
|
 | Q   a E  S a S +S  S a E   +E    E   Q.   Q.   Q
e|------------------------------------|--------------|
B|-------8------8-(8)-----8---(8)-----|-6----4-------|
G|-----4-7----4-7-(7)---4-7---(7)---5-|-5----3----7--|
D|-5--------5---------5---------------|-7----5----8--|
A|------------------------------------|-----------8--|
E|------------------------------------|--------------|
|
 | Q   a E.     S +E    a E    Q        Q.   Q.   Q
e|------------------------------------|-5----3-------|
B|-------8------8-(8)-----8----8------|-6----4----6--|
G|-----4-7------7-(7)---4-7----7------|-5----3----7--|
D|------------------------------------|-----------8--|
A|------------------------------------|--------------|
E|------------------------------------|--------------|


             1.                  2.
     To Coda
   C
             2/4                 2/4
   W           S  S E  S  S E      S  S E  S S E
e|----------|------------------||-------------------||
B|----------|-----------------o||-------------------||
G|----------|------------------||--------------3b5==||
D|----------|------------------||-------------------||
A|-3--------|--3--3----3--3---o||--3--3----3--------||
E|----------|------------------||-------------------||
|
 | W           S  S E  S  S E      S  S E  E   E
e|----------|------------------||-------------------||
B|----------|-----------------o||-------------------||
G|-5--------|------------------||-------------------||
D|-5--------|-13-13---13-13----||-13-13---13--------||
A|----------|-13-13---13-13---o||-13-13---13--------||
E|----------|-11-11---11-11----||-11-11---11--------||
|
 | W           S  S E  S  S E      S  S E  E   E
e|----------|------------------||-------------------||
B|-5--------|-----------------o||-------------------||
G|-5--------|------------------||-------------------||
D|-5--------|-13-13---13-13----||-13-13---13--------||
A|----------|-13-13---13-13---o||-13-13---13--------||
E|----------|-11-11---11-11----||-11-11---11--------||


 Guitar Solo
  Q=86
  C7
 4/4
   ~~~~                                ~~~~~~~~~
  +H.             E E   E   +S  S E E +Q    +S   S  E
e|---------------------|-------------------------------|
B|---------------------|-------------------------------|
G|-(3)r--------------5-|-7b8r(7)p5---5-(5)---(5)-(0)---|
D|----------------/7---|-----------7-------------------|
A|---------------------|-------------------------------|
E|---------------------|-------------------------------|
|
 |  Q     E E E E  E E   Q         E E  E  E  E      E
e|---------------------|-------------------------------|
B|--------4---4------4-|-----------4----4------------4-|
G|--------3---3------3-|-----------3----3------------3-|
D|----------5---5------|-------------5-----5-----------|
A|---------------------|-------------------------------|
E|---------------------|-------------------------------|
|
 |  E   E E E E Q    E   E    E    E E  E  Q         E
e|---------------------|-------------------------------|
B|--------4---4------4-|-----------4----4------------4-|
G|--------3---3------3-|-----------3----3------------3-|
D|------5---5---5------|------5------5-----5-----------|
A|---------------------|-------------------------------|
E|---------------------|-------------------------------|

                           ~~~~~~~~~~~     PM
                                                    |-3-|
   a    +E  +S  S E   E   +Q      +E.      S    E   S S S E E S   +S    S S   e E
e|--------------------------------------------|----------------------------------------|
B|--------------------------------------------|----------------------------------------|
G|-5b7==(5)r(5)p3-----3---(3)-----(3)-----(0)-|-5b7r5p3---3-5-3b5r(3)-----3---3-5b7====|
D|----------------5---------------------------|---------5---------------5--------------|
A|--------------------------------------------|----------------------------------------|
E|--------------------------------------------|----------------------------------------|
|
|                |3| |3|     |3|  |3-|                       |---3---| |-3-|
|       E   E    E S E S  E  E S  E  S E       E   E     E E E       S E   S E E
e|--------------------------------------------|----------------------------------------|
B|----------------4-----4-----4-------4-------|-4---------1-4---------4-------4--------|
G|----------------3-----3-----3-------3-------|-3---------0-3---------3-------3--------|
D|-----------5--------5-----------------------|-----5---------5-------------5---5------|
A|--------------------------------------------|----------------------------------------|
E|--------------------------------------------|----------------------------------------|
|
 |       E   E    E   E    E  E    E    E       E   E     E E E         E     E E
e|--------------------------------------------|----------------------------------------|
B|----------------4--------4--4---------------|-----------4---4---------------4--------|
G|----------------3--------3--3---------------|-----------3---3---------------3--------|
D|-----------5--------5------------5----5-----|-----5-------5-----------5-------5------|
A|--------------------------------------------|----------------------------------------|
E|--------------------------------------------|----------------------------------------|

   F7
   Q    S   +S  S S E S S +Q      +E   E e e  Q   S   S E
e|------------------------------|--------8-7--------------|
B|------------------------------|------------11---8h=10-8-|
G|-5r---5b7r(5)-3---3h4h5-(5)---|-(5)-/7-------------10---|
D|----------------5-------------|-------------------------|
A|------------------------------|-------------------------|
E|------------------------------|-------------------------|
|
 | E  E E       E   E E    E  E    E   E E E  E E Q
e|------------------------------|-------------------------|
B|------4-----------3-1---------|-------------------------|
G|------5-----------3-2-------2-|--0---0-2----0-0-2\------|
D|----3---------3---3-3-------3-|--1---1-3----1-1-3\------|
A|----------------------------3-|--3---3-3----3-3-3\------|
E|------------------------------|-------------------------|
|
 | E  E E       E   E E    E  E    E   E Q    E Q       E
e|------------------------------|------3------3-3-------3-|
B|------4-----------3-1-------1-|------4------4-4-------4-|
G|------5-----------3-2-------2-|------5------5-5-------5-|
D|----3---------3---5-3----3----|--3----------------------|
A|------------------------------|-------------------------|
E|------------------------------|-------------------------|

   C7
   S    +S  E e e  a      Q.    S  S      S S    S    S S  S  S S  S a    +S  S  S  S S  S  S
e|------------8-----------------8-------|-8-8---------8-8---------------------------------------|
B|----------8---8-11b13==11r------11b13-|-------11b13-----11-10-8-------------------------------|
G|-9b11-(9)-----------------------------|-------------------------10-8b10-(8)-8----10-8----10---|
D|--------------------------------------|---------------------------------------10------10------|
A|--------------------------------------|-------------------------------------------------------|
E|--------------------------------------|-------------------------------------------------------|
|
 |                                        |-3-|
 | Q          E E         E  Q  E         E   S  E      E     E    E          E     Q
e|--------------------------------------|-------------------------------------------------------|
B|------------4-----------4-----4-------|---------------4---------------------4-----1-----------|
G|------------3-----------3-----3-------|---------------3---------------------3-----0-----------|
D|---------------------------5----------|-----5-------------------------------------------------|
A|--------------------------------------|-------------------------------------------------------|
E|--------------------------------------|-------------------------------------------------------|
|
 | E        E E E         E  Q  E         E      E      E     E    E          E     E    E
e|--------------------------------------|-------------------------------------------------------|
B|------------4-----------4-----4-------|---------------4---------------------4-----------------|
G|------------3-----------3-----3-------|---------------3---------------------3-----------------|
D|----------5---5------------5----------|-5------5------------5----5----------------5----5------|
A|--------------------------------------|-------------------------------------------------------|
E|--------------------------------------|-------------------------------------------------------|

   G7
   S   S  S S S  S  S S  S S  S S S  S S S
e|-----------------------------------------|
B|----------8------------------------------|
G|-8-----10---8----10-8-----------8------8-|
D|----10--------10------10-8----8---10-8---|
A|---------------------------10------------|
E|-----------------------------------------|
|
 | H.                             Q
e|-3---------------------------------------|
B|-3---------------------------------------|
G|-----------------------------------------|
D|-----------------------------------------|
A|-----------------------------------------|
E|-----------------------------------------|
|
 | W
e|-----------------------------------------|
B|-----------------------------------------|
G|-0---------------------------------------|
D|-0---------------------------------------|
A|-----------------------------------------|
E|-----------------------------------------|

   F7
                                   ~~~~~
    S  S S  S E.    a      +S     +E   S S  S  a     +S  S S
e|-------------------------------------8-------------------8-|
B|-----------------11b13==(11)---(11)r---8-11------------8---|
G|----10-8----8-------------------------------10b12-(10)-----|
D|-10------10------------------------------------------------|
A|-----------------------------------------------------------|
E|-----------------------------------------------------------|
|
 |  Q         E  E                 E   Q                 E
e|-----------------------------------------------------------|
B|--6---------3------------------------------------------3---|
G|--5---------3--------------------2---------------------3---|
D|---------------5---------------------3---------------------|
A|-----------------------------------------------------------|
E|-----------------------------------------------------------|
|
|               |------3------|
|  Q         E  E             S   E   Q                 E
e|-----------------------------------------------------------|
B|--6--------------------------------------------------------|
G|--8---------7--5-----------------5-------------------------|
D|--7---------8--7-------------4---7---3-----------------3---|
A|-----------------------------------------------------------|
E|-----------------------------------------------------------|

   C7
   S  S  S      S      S  S      S      S  S      S      S  S     E     +E
e|--------------------------------------------------------------------------|
B|-8-11-11pb13-11pb13-11-11pb13-11pb13-11-11pb13-11pb13-11-11b13-11b13r(11)-|
G|--------------------------------------------------------------------------|
D|--------------------------------------------------------------------------|
A|--------------------------------------------------------------------------|
E|--------------------------------------------------------------------------|
|
 | E     E             E         E         E             E        E      E
e|--------------------------------------------------------------------------|
B|---------------------4---------------------------------4---------------4--|
G|---------------------3---------------------------------3---------------3--|
D|-5-----------------------------5--------------------------------5---------|
A|--------------------------------------------------------------------------|
E|--------------------------------------------------------------------------|
|
 | E     E             E         E         E             E        E      E
e|--------------------------------------------------------------------------|
B|---------------------4----------------------------------------------------|
G|---------------------3----------------------------------------------------|
D|-5-----5-----------------------5---------5-------------5--------5------5--|
A|--------------------------------------------------------------------------|
E|--------------------------------------------------------------------------|

           F      F#G    GA BbB
   E  a     +Q.      +Q..        +S
e|---13b17-(13)-----(13)--------(13)-||
B|-----------------------------------||
G|-----------------------------------||
D|-----------------------------------||
A|-----------------------------------||
E|-----------------------------------||
|
 | E         E  E E   E   E E E
e|-----------------------------------||
B|-----------------------------------||
G|------------------------2-3-4------||
D|-5---------3--4-5---6--------------||
A|------------------------0-1-2------||
E|-3---------1--2-3---4--------------||
|
 | E         E  E E   E   E E E
e|-----------1--2-3---4---5-6-7------||
B|-----------------------------------||
G|------------------------2-3-4------||
D|-----------3--4-5---6--------------||
A|-----------------------------------||
E|-----------------------------------||

[Organ Solo]
   Moderately Slow  Q=86(16=s16)
   C7
     PM     PM  PM              PM  PM        PM
   E E E    E E E    S  S E   E E E E    E    E S S E
e|--------------------------|---------------------------|
B|--------------------------|---------------------------|
G|------------------------3-|-----------------------3---|
D|-------------------3h=5---|-------------------3h5-----|
A|-3-3-3----3-3-3-----------|-3-3-3-3----3----3---------|
E|--------------------------|---------------------------|
|
 | E E S E.   E S S +S  S E   E E E S S +S  S E E   E
e|--------------------------|---------------------------|
B|---4---4----4---4-(4)---6-|-4-1-4---4-(4)---4-----6---|
G|---3---3----3---3-(3)---5-|-3-0-3---3-(3)---3-----5---|
D|-----5--------5-------5---|-------5-------5---5-------|
A|--------------------------|---------------------------|
E|--------------------------|---------------------------|
|
 | Q   E    E E E    E    E   Q   E E    E    E E   S S
e|--------------------------|---------------------------|
B|-----4--------4-----------|-----4------4----1-----4---|
G|-----3--------3-----------|-----3------3----0-----3-3-|
D|------------------------5-|---------------------------|
A|--------------------------|---------------------------|
E|--------------------------|---------------------------|

     PM    PM  PM             PM     PM        PM
   E E   E E E E  S S E     E E E    E   E   S S  S  S E
e|----------------------|--------------------------------|
B|----------------------|--------------------------------|
G|----------------------|------------------------------3-|
D|----------------3h5-3-|-------------------------3h=5---|
A|-3-3---3-3-3-3--------|---3-3-3----3---3---3-3---------|
E|----------------------|--------------------------------|
|
 | E S S E E E Q.         a E E S E.     E   S S +S  S E
e|----------------------|--------------------------------|
B|---4-4-4-1-4----------|-----4---3------1---------------|
G|---3-3-3-0-3-3--------|----------------------3-(3)---2-|
D|-------------5--------|-4-5---3------------1-------0---|
A|----------------------|--------------------------------|
E|----------------------|--------------------------------|
|
 | Q     E E E E  Q         E E S S  S S S S E    E    E
e|----------------------|--------------------------------|
B|-------4---4-1--------|---4---4-4------4-4------4----4-|
G|-------3---3-0--------|---3---3-3------3-3------3----3-|
D|----------------------|--------------5-----------------|
A|----------------------|--------------------------------|
E|----------------------|--------------------------------|

   F7
       PM    PM        PM              PM    PM    PM
   E   E   E E    E    S S  S  S E   E E E   E E   S S S S E
e|---------------------------------|-------------------------|
B|---------------------------------|-------------------------|
G|---------------------------------|-------------------------|
D|-------------------------------1-|-----------------------1-|
A|--------------------------1h=3---|-------------------1h3---|
E|-1---1---1-1----1----1-1---------|-1-1-1---1-1---1-1-------|
|
 | S E   S E S S +S  S E   +E    E   E E E a E S S E   E   E
e|---------------------------------|-----5---5-3-------3---5-|
B|---------------------1---(1)-----|-4---6-4-6---4-----4---6-|
G|---0-----2---3-(3)---------------|-5-5-----------5---------|
D|-----------0-------1-----------3-|-------------------------|
A|-1-----3-------------------------|-------------------------|
E|---------------------------------|-------------------------|
|
 | S S E   E E    E    E    Q        Q   E   E E   E   E   E
e|---------------------------------|-----5-----3---5-------3-|
B|-1-------1------3----1-----------|-----6-----4---6-------4-|
G|-0-2-----2------3----2-----------|-----5-----5---5---------|
D|-----3---3------3----3-----------|-------------------------|
A|---------------------------------|-------------------------|
E|---------------------------------|-------------------------|

     C7
             PM      PM      PM              PM  PM  PM
      E      E   E   E   E   S S E   E    E  E E E E S S E E
e|-------------------------------------|-------------------------|
B|-------------------------------------|-------------------------|
G|-------------------------------------|-------------------------|
D|-------------------------------1-----|-----------------1-------|
A|----3------3---3---3---3---3-------1-|--3--3-3-3-3-3-3---------|
E|-----------------------------3-------|-------------------3-----|
|
 | a  E    a E a E a E a E a E   S S E   +E  E E E E E   E E
e|----6------6---6---6---6---6---------|-------------------------|
B|-6--8----6-8-6-8-6-8-6-8-6-8---6-4---|-------------4---4-------|
G|-----------------------------------5-|-(5)-5-3-5---3---3-------|
D|-------------------------------------|-----5-3-5---------5-----|
A|-------------------------------------|-------------------------|
E|-------------------------------------|-------------------------|
|
 |   +S  S   E   Q       E   E   E   E   +E  E E E E E   E S S
e|---(3)-------------------------------|-------------------------|
B|---(4)-4---------------4-------------|-------4---4-----4-------|
G|-----------5-----------3---5-------3-|-(3)-5-3---3-----3-------|
D|---------------------------5-------3-|-(3)-5-------5-----7-8---|
A|-------------------------------------|-------------------------|
E|-------------------------------------|-------------------------|

     G7                                      F7
           PM      PM        PM      PM          PM    PM    PM    PM
     E     E   E   E   E     E   E   E        E  E   E E E   E E   E
e|-----------------------------------------|-------------------------|
B|-----------------------------------------|-------------------------|
G|-----------------------------------------|-------------------------|
D|-----------------------------------------|-------------------------|
A|-----------------------------------------|-------------------------|
E|---3-----3---3---3---3-----3---3---3-----|--1--1---1-1-1---1-1---1-|
|
|                     |-3-|         |-3-|
| a S S a S S E a S S S S S E a S S S S S   +E  S S E E S S E E a E
e|-----3-------------3-------------3-------|-------------------------|
B|-1-3---4-------1-3---4-------1-3---4-----|-----------------------1-|
G|---------5-3-0---------5-3-0---------5-3-|-(3)-1-2-----2---------0-|
D|-----------------------------------------|---------3-1-3-1-----4---|
A|-----------------------------------------|-----------------3-3-----|
E|-----------------------------------------|-------------------------|
|
 |   E     E   E   E   E     E   E   E        E  E   E E E   E E   E
e|-------------3-------3-----3-------------|--5------3---5---3-----3-|
B|-------------3-------3-----3-------------|--6------4---6---4-----4-|
G|---3-----------------------4-------5-----|-----5-------------5-----|
D|---------5-------------------------------|-------------------------|
A|-----------------------------------------|-------------------------|
E|-----------------------------------------|-------------------------|

   C7                                 Bb B  C  C# D  Eb E
         PM       PM       PM   PM
    E    E E      E    E   E  E E   E  E  E  E  E  E  E  E
e|--------------------------------|------------------------||
B|--------------------------------|------------------------||
G|--------------------------------|------------------------||
D|--------------------------------|----------------0--1--2-||
A|--3----3-3------3----3---3--3-3-|-3--1--2--3--4----------||
E|--------------------------------|------------------------||
|
 | +E  a E S  S   E  a E a Q.       E  E  E  E  E  E  E  E
e|--------------------------------|------------------------||
B|-(1)---1-------------1---1------|----------------3--4--5-||
G|-(0)---0-5-(5)-(5)---0---0------|-5--3--4--5--6----------||
D|-----4---3--1------4---4--------|----------------0--1--2-||
A|----------------3---------------|-3--1--2--3--4----------||
E|--------------------------------|------------------------||
|
 |  E    E E      E    E   Q.       E  E  E  E  E  E  E  E
e|---------3-----------3----------|---------------10-11-12-||
B|---------4-----------4----------|---11-12-13-14----------||
G|--5----------------------5------|----------------7--8--9-||
D|--------------------------------|----8--9-10-11----------||
A|--------------------------------|------------------------||
E|--------------------------------|------------------------||

[Main Theme Return]
   F7
                                                         ~~~
   E e S S e e E S    +S   E   +E  e S S e e e a    +E   E
e|---------------------------|-----------------------------|
B|---------------------------|-----------------------------|
G|---------------1b2==(1)r---|-----------------3b5==(3)r-1-|
D|---3-3p1---1-3-----------3-|-(3)-3-3p1---1-3-------------|
A|---------3-----------------|-----------3-----------------|
E|---------------------------|-----------------------------|
|
 | E E S S E E E E         E   +E  E S S E E E       E   E
e|---------------------------|-----------------------------|
B|---------------1-----------|-----------------------3---1-|
G|---2-2-0---0-2-1---------2-|-(2)-2-2-0---0-2-------3---1-|
D|---3-3-1-2-1-3-----------3-|-(3)-3-3-1-2-1-3-------------|
A|---------3-----------------|-----------3-----------------|
E|---------------------------|-----------------------------|
|
 | E E S S E E E E         E   +E  E S S E E E       E   E
e|---------------------------|-----------------------------|
B|---------------1-----------|-----------------------3---1-|
G|---2-2-0---0-2-1---------2-|-(2)-2-2-0---0-2-------3---1-|
D|---3-3-1-2-1-3-----------3-|-(3)-3-3-1-2-1-3-------------|
A|---------3-----------------|-----------3-----------------|
E|---------------------------|-----------------------------|

   C7                                Eb E
  ~~~~~
   +E  E S S e e e E E   +E  e S S E Q  Q
e|---------------------|-------------------|
B|---------------------|-------------------|
G|-(1)-----------------|-------------------|
D|-----------------1---|-------------------|
A|-----3-3p1---1-3---3-|-(3)-3-3p1---1--2--|
E|-----------3---------|-----------3-------|
|
 | +E  E S S E E E E E   +E  E S S E Q  Q
e|---------------------|-------------------|
B|-(1)-----------------|-------------------|
G|-(1)-------------0---|-------------0--1--|
D|-----2-2-0---0-2-1-2-|-(2)-2-2-0---1--2--|
A|-----3-3-1-1-1-3---3-|-(3)-3-3-1-1-1--2--|
E|-----------3---------|-----------3-------|
|
 | +E  E S S E E E E E   +E  E S S E Q  Q
e|-----0-0-------0-3-0-|-(0)-0-0-----3--4--|
B|-(1)-1-1-3---3-1-4-1-|-(1)-1-1-3---4--5--|
G|-(1)-----3-3-3-------|---------3-3-3--4--|
D|-----------5---------|-----------5-------|
A|---------------------|-------------------|
E|---------------------|-------------------|

   F7
                                                         ~
   E e S S e e E S    +S   E   +E  e S S e e e a    +E   E
e|---------------------------|-----------------------------|
B|---------------------------|-----------------------------|
G|---------------1b2==(1)r---|-----------------3b5==(3)r-1-|
D|---3-3p1---1-3-----------3-|-(3)-3-3p1---1-3-------------|
A|---------3-----------------|-----------3-----------------|
E|---------------------------|-----------------------------|
|
 | E E S S E E E E         E   +E  E S S E E E       E   E
e|---------------------------|-----------------------------|
B|---------------1-----------|-----------------------3---1-|
G|---2-2-0---0-2-1---------2-|-(2)-2-2-0---0-2-------3---1-|
D|---3-3-1-2-1-3-----------3-|-(3)-3-3-1-2-1-3-------------|
A|---------3-----------------|-----------3-----------------|
E|---------------------------|-----------------------------|
|
 | E E S S E E E E         E   +E  E S S E E E       E   E
e|---------------------------|-----------------------------|
B|---------------1-----------|-----------------------3---1-|
G|---2-2-0---0-2-1---------2-|-(2)-2-2-0---0-2-------3---1-|
D|---3-3-1-2-1-3-----------3-|-(3)-3-3-1-2-1-3-------------|
A|---------3-----------------|-----------3-----------------|
E|---------------------------|-----------------------------|

                              D.S. al Coda
   C7                                Eb Bb
   +E  e S S e e e E E   +E  e S S E Q  Q
e|---------------------|-------------------||
B|---------------------|-------------------||
G|-(1)-----------------|-------------------||
D|-----------------1---|-------------1-----||
A|-----3-3p1---1-3---3-|-(3)-3-3p1------1--||
E|-----------3---------|-----------3-------||
|
 | +E  E S S E E E E E   +E  E S S E Q  Q
e|---------------------|-------------------||
B|-(1)-----------------|-------------------||
G|-(1)-------------0---|-------------0-----||
D|-----2-2-0---0-2-1-2-|-(2)-2-2-0---1--3--||
A|-----3-3-1-1-1-3---3-|-(3)-3-3-1-1-1--5--||
E|-----------3---------|-----------3----6--||
|
 | +E  E S S E E E E E   +E  E S S E Q  Q
e|-----0-0-------0-3-0-|-(0)-0-0-----3-----||
B|-(1)-1-1-3---3-1-4-1-|-(1)-1-1-3---4--3--||
G|-(1)-----3-3-3-------|---------3-3-3--3--||
D|-----------5---------|-----------5----3--||
A|---------------------|-------------------||
E|---------------------|-------------------||

                 [Outro] (2nd Guitar So
  &
  C7              F7
 2/4             4/4
                              PM-----
   S  S E  E E    H         E E E E
e|--------------||-------------------|
B|--------------||-------------------|
G|--------------||-------------------|
D|--------------||-------------------|
A|--3--3----3---||-------------------|
E|--------------||-------------1-1-1-|
|
 |  S  S E  E E    E E S S E E E E E
e|--------------||-------------------|
B|--------------||---------------1---|
G|--------------||---2-2-0---0-2-1-2-|
D|-13-13---13---||---3-3-1-2-1-3---3-|
A|-13-13---13---||---------3---------|
E|-11-11---11---||-------------------|
|
 |  S  S E  E E    E E S S E E E E E
e|--------------||-------------------|
B|--------------||---------------1---|
G|--------------||---2-2-0---0-2-1-2-|
D|-13-13---13---||---3-3-1-2-1-3---3-|
A|-13-13---13---||---------3---------|
E|-11-11---11---||-------------------|

 lo)
                        C7
 -------------------|
   E  E E   E E E E E    E  E E   E E E E E
e|---------------------|----------------------|
B|---------------------|----------------------|
G|---------------------|----------------------|
D|---------------------|-----------------1----|
A|---------------------|--x--x-x---x-x-x---3--|
E|--1--1-1---1-1-1-1-1-|----------------------|
|
 | +E  E S S E E E E E   +E  E S S E E E E E
e|---------------------|----------------------|
B|-----------------3-1-|-(1)------------------|
G|-(2)-2-2-0---0-2-3-1-|-(1)-------------0----|
D|-(3)-3-3-1-2-1-3-----|-----2-2-0---0-2-1-2--|
A|-----------3---------|-----3-3-1-1-1-3---3--|
E|---------------------|-----------3----------|
|
 | +E  E S S E E E E E   +E  E S S E E E E E
e|---------------------|-----0-0-------0-3-0--|
B|-----------------3-1-|-(1)-1-1-3---3-1-4-1--|
G|-(2)-2-2-0---0-2-3-1-|-(1)-----3-3-3--------|
D|-(3)-3-3-1-2-1-3-----|-----------5----------|
A|-----------3---------|----------------------|
E|---------------------|----------------------|

  C7          Eb  E     F7
        PM----------|                                        ~~~~
   Q    E   E E E E E    a     +Q     a     +Q       a      +H
e|---------------------|-----------------------------------------------|
B|---------------------|-11b13-(11)---11b13-(11)-----11b13==(11)-------|
G|---------------------|-----------------------------------------------|
D|---------------------|-----------------------------------------------|
A|-------3---3-3-3-3-3-|-----------------------------------------------|
E|---------------------|-----------------------------------------------|
|
 | +E  E S S E Q   Q             E  E         S  S E          E  E E E
e|---------------------|-----------------------------------------------|
B|---------------------|-------------------------------------------1---|
G|-------------0---1---|------------2---------2--0------------0--2-1-2-|
D|-(2)-2-2-0---1---2---|------------3---------3--1-2----------1--3---3-|
A|-(3)-3-3-1-1-1---2---|---------------------------3-------------------|
E|-----------3---------|-----------------------------------------------|
|
 | +E  E S S E Q   Q             E  E         S  S E          E  E E E
e|-(0)-0-0-----3---4---|-----------------------------------------------|
B|-(1)-1-1-3---4---5---|-------------------------------------------1---|
G|---------3-3-3---4---|------------2---------2--0------------0--2-1-2-|
D|-----------5---------|------------3---------3--1-2----------1--3---3-|
A|---------------------|---------------------------3-------------------|
E|---------------------|-----------------------------------------------|

                                              C7
                                     ~~~~                                           ~
    +Q      a     +E    E  E  a     +Q.        a     +E   e  a     +E     a     +E  H
e|------------------------------------------|--------------------------------------------------|
B|-(11)r---11b13-(11)---8-11----------------|------------11------------------------------------|
G|---------------------------10b12-(10)-----|-10b12-(10)----10b12-(10)---10b12-(10)-8----------|
D|------------------------------------------|--------------------------------------------------|
A|------------------------------------------|--------------------------------------------------|
E|------------------------------------------|--------------------------------------------------|
|
 |  +E   E         S  S E  E         E  E E          +E   E         S  S         E  E E E E
e|------------------------------------------|--------------------------------------------------|
B|--------------------------------------3-1-|--------(1)---------------------------------------|
G|--(2)--2---------2--0----0---------2--3-1-|--------(1)--------------------------------0------|
D|--(3)--3---------3--1-2--1---------3------|-------------2---------2--0------------0-2-1-2----|
A|----------------------3-------------------|-------------3---------3--1---------1--1-3---3----|
E|------------------------------------------|------------------------------------3-------------|
|
 |  +E   E         S  S E  E         E  E E          +E   E         S  S         E  E E E E
e|------------------------------------------|-------------0---------0-----------------0-3-0----|
B|--------------------------------------3-1-|--------(1)--1---------1--3------------3-1-4-1----|
G|--(2)--2---------2--0----0---------2--3-1-|--------(1)---------------3---------3--3----------|
D|--(3)--3---------3--1-2--1---------3------|------------------------------------5-------------|
A|----------------------3-------------------|--------------------------------------------------|
E|------------------------------------------|--------------------------------------------------|

   C7                 Eb           E                F7
                                                    ~
    E  E e    e  a     +Q    a      +S   +S  S  S   Q    Q      E  a     +S  S S S  a     +S  S
e|------------------------------------------------|----------------------------8--------------8-|
B|------------------------------------------------|--------------------------8---8-11b13-(11)---|
G|--8--7-8---10-10b12-(10)--10b12==(10)r(10)p8----|-8-------------10b12-(10)--------------------|
D|---------------------------------------------10-|-----10\-------------------------------------|
A|------------------------------------------------|---------------------------------------------|
E|------------------------------------------------|---------------------------------------------|
|
 | +E  E S S  E         Q            Q              E E  S  S E E         E    E           E
e|------------------------------------------------|---------------------------------------------|
B|------------------------------------------------|----------------------------1----------------|
G|----------------------0------------1------------|---2--2--0---0---------2----1-----------2----|
D|-(2)-2-2-0------------1------------2------------|---3--3--1-2-1---------3----------------3----|
A|-(3)-3-3-1--1---------1------------2------------|-----------3---------------------------------|
E|------------3-----------------------------------|---------------------------------------------|
|
 |  E  E S S  E         Q            Q              E E  S  S E E         E    E           E
e|--0--0-0--------------3------------4------------|---------------------------------------------|
B|--1--1-1-3------------4------------5------------|----------------------------1----------------|
G|---------3--3---------3------------4------------|---2--2--0---0---------2----1-----------2----|
D|------------5-----------------------------------|---3--3--1-2-1---------3----------------3----|
A|------------------------------------------------|-----------3---------------------------------|
E|------------------------------------------------|---------------------------------------------|

                                                                C7
   S   a     +S  S S  a     +S  S  S S S  S S  S S  T T  S S    S   S S  S S  S T  T T  T S S S  S      +Q
e|---------------8--------------8----8-8----8----8-10p8----8-|-10-----8-11-8----------------8----------------|
B|-8--11b13-(11)---8-11b13-(11)---11-----11---11--------11---|-----11--------11-8h11p8----8---8-11b13==(11)--|
G|-----------------------------------------------------------|-------------------------10--------------------|
D|-----------------------------------------------------------|-----------------------------------------------|
A|-----------------------------------------------------------|-----------------------------------------------|
E|-----------------------------------------------------------|-----------------------------------------------|
|
 |+E             E           S  S  E   E    E    E       E     +E     E    S  S E         E   E          E  E
e|-----------------------------------------------------------|-----------------------------------------------|
B|-----------------------------------------------3-------1---|-(1)\------------------------------------------|
G|(2)------------2-----------2--0------0----2----3-------1---|-(1)\--------------------------------------0---|
D|(3)------------3-----------3--1--2---1----3----------------|--------2----2--0-----------0---2----------1--2|
A|---------------------------------3-------------------------|--------3----3--1-1---------1---3-------------3|
E|-----------------------------------------------------------|------------------3----------------------------|
|
 |+E             E           S  S  E   E    E    E       E     +E     E    S  S E         E   E          E  E
e|-----------------------------------------------------------|--------0----0------------------0----------3--0|
B|-----------------------------------------------3-------1---|-(1)----1----1--3-----------3---1----------4--1|
G|(2)------------2-----------2--0------0----2----3-------1---|-(1)------------3-3---------3------------------|
D|(3)------------3-----------3--1--2---1----3----------------|------------------5----------------------------|
A|---------------------------------3-------------------------|-----------------------------------------------|
E|-----------------------------------------------------------|-----------------------------------------------|

   C7                        Eb      E            F7
    +Q     S S  S  a     +S  S S S S  S  S S  S   e e E   S S S S S S S S S S
e|---------8-------------------8----------------|-----------------------------|
B|-(11)r-----8-11------------8---8--------------|-----------------------------|
G|----------------10b12-(10)-------8----10-8----|-8-8-8---7-7-7s5-5-5-5-7-5-5-|
D|-----------------------------------10------10-|-----------------------------|
A|----------------------------------------------|-----------------------------|
E|----------------------------------------------|-----------------------------|
|
 |  +E   E S S  E            Q        Q           E E S S E   E   E   E   E
e|----------------------------------------------|-----------------------------|
B|----------------------------------------------|---------------------1-------|
G|---------------------------0--------1---------|---2-2-0-----0---2---1---2---|
D|--(2)--2-2-0---------------1--------2---------|---3-3-1-2---1---3-------3---|
A|--(3)--3-3-1--1------------1--------2---------|---------3-------------------|
E|--------------3-------------------------------|-----------------------------|
|
 |  +E   E S S  E            Q        Q           E E S S E   E   E   E   E
e|--(0)--0-0-----------------3--------4---------|-----------------------------|
B|--(1)--1-1-3---------------4--------5---------|---------------------1-------|
G|-----------3--3------------3--------4---------|---2-2-0-----0---2---1---2---|
D|--------------5-------------------------------|---3-3-1-2---1---3-------3---|
A|----------------------------------------------|---------3-------------------|
E|----------------------------------------------|-----------------------------|

                               C7
                     ~                                            ~
    S  S S S S S S S Q   e e   a   +Q    a   +Q      S     +S   E Q
e|---------------------------|------------------------------------------|
B|---------------------------|------------------------------------------|
G|--5h=7-5---5h7p5---5---3-5-|-5b9-(5)---5b9-(5)-----5pb9==(5)r-3-5-----|
D|-----------------7---------|------------------------------------------|
A|---------------------------|------------------------------------------|
E|---------------------------|------------------------------------------|
|
 | +E    E   S S E   E E E E       +E  E      S  S E E          E E E
e|---------------------------|------------------------------------------|
B|-----------------------3-1-|-----(1)----------------------------------|
G|-(2)---2---2-0-----0-2-3-1-|-----(1)----------------------------0-----|
D|-(3)---3---3-1-2---1-3-----|---------2------2--0---0----------2-1-2---|
A|---------------3-----------|---------3------3--1-1-1----------3---3---|
E|---------------------------|---------------------3--------------------|
|
 | +E    E   S S E   E E E E       +E  E      S  S E E          E E E
e|---------------------------|---------0------0-----------------0-3-0---|
B|-----------------------3-1-|-----(1)-1------1--3---3----------1-4-1---|
G|-(2)---2---2-0-----0-2-3-1-|-----(1)-----------3-3-3------------------|
D|-(3)---3---3-1-2---1-3-----|---------------------5--------------------|
A|---------------3-----------|------------------------------------------|
E|---------------------------|------------------------------------------|

   C7                      Eb              E         F7
                                                                               ~
    E  S   +S  S S S S a   +S  S S a   +S  S S s s   s s   s s   S   +S    S S Q   S S E
e|-------------6-----6---------6-6---------6-------|-------------------------------------|
B|-----6b8-(6)---6-6---6b8-(6)-----6b8-(6)---6-6-6-|-6-6---6-6---6b8r(6)---4-6---------6-|
G|-------------------------------------------------|---------------------------5---5h7---|
D|-------------------------------------------------|-------------------------------------|
A|-------------------------------------------------|-------------------------------------|
E|-------------------------------------------------|-------------------------------------|
|
 | +E  E       S S E        Q              Q         E   a E   a E       a E   E E E   E
e|-------------------------------------------------|-------5-----5---------5---5---------|
B|-------------------------------------------------|-----4-6---4-6-------4-6---4-------6-|
G|--------------------------0--------------1-------|-----------------------------3-5---5-|
D|-(2)-2-------2-0----------1--------------2-------|-----------------------------------7-|
A|-(3)-3-------3-1-1--------1--------------2-------|-------------------------------------|
E|-----------------3-------------------------------|-------------------------------------|
|
 | +E  E       S S E        Q              Q         E     E     S    S    E   E E E   E
e|-(0)-0-------0------------3--------------4-------|-------------------------------------|
B|-(1)-1-------1-3----------4--------------5-------|-------------------------------1-----|
G|---------------3-3--------3--------------4-------|-------2-----2----0--------0-2-1---2-|
D|-----------------5-------------------------------|-------3-----3----1----2---1-3-----3-|
A|-------------------------------------------------|-----------------------3-------------|
E|-------------------------------------------------|-------------------------------------|

    S    +S    E S    +S  E S    +S  S S    +S  S s s
e|-------------8----------8----------8----------8-----|
B|--8b10-(8)-----8b10-(8)---8b10-(8)---8b10-(8)---8-8-|
G|----------------------------------------------------|
D|----------------------------------------------------|
A|----------------------------------------------------|
E|----------------------------------------------------|
|
 | +E        a E S     S  E E        E       E    E
e|-------------5-5--------5-3-------------------------|
B|-(6)-------4-6-6--------6-4----------------3--------|
G|-(5)-----------------4-------------5------------5---|
D|-(7)------------------------------------------------|
A|----------------------------------------------------|
E|----------------------------------------------------|
|
 | +E          E S     S  E E        E       E    E
e|----------------------------------------------------|
B|-------------------------------------------3----1---|
G|-(2)---------2-2-----0----0--------2-------3----1---|
D|-(3)---------3-3-----1--2-1--------3----------------|
A|------------------------3---------------------------|
E|----------------------------------------------------|

  C7                                                                  Eb         E
                                  ~~
                                                                                  |-3--|
   S    +S    S S   S S   E e  e  Q      S  S    S  a     +S  S S S S  S  S S  S  S S  S T  T T  T
e|-------------------------8-----------|--8----------------------8----------------------------------|
B|--8b10r(8)---6-8-----------8-10-11---|-----8---11------------8---8--------------------------------|
G|-------------------8s9---------------|------------10b12-(10)-------8----10-8----10-8----8h10p8----|
D|-------------------------------------|-------------------------------10------10------10--------10-|
A|-------------------------------------|------------------------------------------------------------|
E|-------------------------------------|------------------------------------------------------------|
|
 | +E        a E   a E   a E E  E  E E   +E    a  E            S S E    Q          Q
e|---------------------------------3---|------------------------------------------------------------|
B|-------------4-----4-----4-3-----4-5-|-(5)------5------------5-3----------------------------------|
G|-(5)-------3-5---3-5---3-5-3-------5-|-(5)---3--5------------5-3------0----------1----------------|
D|------------------------------5------|---------------------------5----1----------2----------------|
A|-------------------------------------|--------------------------------1----------2----------------|
E|-------------------------------------|------------------------------------------------------------|
|
 | +E          E     S S   E E  E  E E   +E       E            S S E    Q          Q
e|-------------0-----0----------0--3-0-|-(0)------0------------0--------3----------4----------------|
B|-(1)---------1-----1-3-----3--1--4-1-|-(1)------1------------1-3------4----------5----------------|
G|-(1)-----------------3---3-3---------|-------------------------3-3----3----------4----------------|
D|-------------------------5-----------|---------------------------5--------------------------------|
A|-------------------------------------|------------------------------------------------------------|
E|-------------------------------------|------------------------------------------------------------|

  F7
   |-------6--------|  |--3---|
   S S    S  S S    S  S S    S E +E   a     +E  E  a     +S  S
e|----------------------------------------------------------------*|
B|-------------------------------------------------------------8--*|
G|-10-8------10-8------10-8------8-(8)-10b12-(10)---10b12-(10)----*|
D|--------10--------10--------10----------------------------------*|
A|----------------------------------------------------------------*|
E|----------------------------------------------------------------*|
|
 |  E         E         S   S    E  E          E  E         E
e|----------------------------------------------------------------*|
B|------------------------------------------------1---------------*|
G|------------2---------2---0-------0----------2--1---------2-----*|
D|------------3---------3---1----2--1----------3------------3-----*|
A|-------------------------------3--------------------------------*|
E|----------------------------------------------------------------*|
|
 |  S   S     S   S     S   S    E  E          E  E         E
e|--5---5-----5---5-----5---3-------------------------------------*|
B|--6---6-----6---6-----6---4----4----------------1---------------*|
G|-------------------------------5--0----------2--1---------2-----*|
D|----------------------------------1----------3------------3-----*|
A|----------------------------------------------------------------*|
E|----------------------------------------------------------------*|


************************************

| h   - hammer-on
| p   - pull-off
| b   - bend
| pb  - pre-bend
| r   - bend release (if no number after the r, then release immediately)
| /\  - slide into or out of (from/to "nowhere")
| s   - legato slide
| S   - shift slide
| - natural harmonic
|[n]  - artificial harmonic
|n(n) - tapped harmonic
| ~   - vibrato
| tr  - trill
| T   - tap
| TP  - trem. picking
| PM  - palm muting
|\n/  - tremolo bar dip; n = amount to dip
| \n  - tremolo bar down
| n/  - tremolo bar up
|/n\  - tremolo bar inverted dip
| =   - hold bend; also acts as connecting device for hammers/pulls
| <> - volume swell (louder/softer)
| x   - on rhythm slash represents muted slash
| o   - on rhythm slash represents single note slash


************************************

            
            
Suggest correction
Creating personal tab
Creating personal tab
You can edit any tab online and save it as your Personal.

You can edit, replace or remove any tab part or add personal notes – all changes will be seen only by you.

Personal tabs can be accessed anytime from any device, even offline.
Learn more »
Give kudos to tab author, rate the tab!
1 2 3 4 5
comments
print report bad tab
guest
You may want to rate the tab now too:
select rating
Wanna post a correction for this tab? Suggest correction