Oops, an error
Loading. Please wait.
We have an official Smoke On The Water tab made by UG professional guitarists. Check out the tab »
×

Smoke On The Water solo tab

version 2
version 2

Solo

  • This is the solo for the alternative version, not the regular LP version.

Whole song

10,972 views 210 this week
5 commentsread comments
1 2 3 4 5
x 11
add to favorites
×
Save as Personal and add changes to this tab that will be seen only by you. Learn more ›
×
You can save this tab as Personal to edit and correct it or add notes. All changes will be seen only by you. Learn more »
launch autoscroll
font size
0
reset
how to read this tab
guitar tuner
backing track
0:00
0:00
edit
Autoscroll
slow
fast
+/-
esc
set tempo
stop
------------------------------------------------------------------------------------------------------------
                                          Artist - Deep Purple 
                                         **********************
                                         Song - Smoke On The Water
                                        ***************************
                                        Album - Machine Head (1972)    
                                       *****************************
                                            Tabbed By - Ayreon77
                                           **********************
------------------------------------------------------------------------------------------------------------
Tuning = Standard

                                       One Of Blackmores great solos
                                          Well tricky in Places.


02:58
SOLO
*****
e|------------------|--rb-----------b-|--------------b-|-------------h--p-s-----------------------|
B|------------------|-13--11-------11-|----------11-11-|-11-10-8-10-8-10-8\6-8-6---6----8--b-8~~~-|
G|---s---10-12~~~~~-|--------12~~~----|----10-12-------|-------------------------8---10---10------|
D|-10\12------------|-----------------|-12-------------|------------------------------------------|
A|------------------|-----------------|----------------|------------------------------------------|
E|------------------|-----------------|----------------|------------------------------------------|

03:08
e|----b-8--b-8-|-8------|------8---------------------------------------------------|
B|-8-11---11---|---8-11-|--b-8---11-10-8-------------------------------------------|
G|-------------|--------|-10-------------11-10-8----10-8-7---------------5---8-7-5-|
D|-------------|--------|------------------------10--------10-8-7-5--8-7---8-------|
A|-------------|--------|----------------------------------------------------------|
E|-------------|--------|----------------------------------------------------------|

03:15                                                                                     b   b 
e|----------------------Whammy-|-----3-b-3-3------------------------------|-----3-----3-6-8-|-8-8-6-8-------|
B|--b--r-----------------/\----|-b-3---6-----6-5-3-------------b--b--b--b-|-3-6---3-6-------|---------8~~~~-|
G|-3-----5-3-2-3-2-3-2-0-------|-5-----------------6-5-3---5-3-5--5--5--5-|-----------------|---------------|
D|-----------------------------|-------------------------5----------------|-----------------|---------------|
A|-----------------------------|------------------------------------------|-----------------|---------------|
E|-----------------------------|------------------------------------------|-----------------|---------------|
                                                          already already
                                                           bent    bent 
03:27                                           b     b      |       |     b
e|-----------8------|-8------|-8----8-10-11-13-13-|-13--13--13--13--13-|-13--13---b-----b-|
B|-8-11--b-8---11-8-|---11-8-|---11---------------|--------------------|---------13-13-13-|
G|------10----------|--------|--------------------|--------------------|------------------|
D|------------------|--------|--------------------|--------------------|------------------|
A|------------------|--------|--------------------|--------------------|------------------|
E|------------------|--------|--------------------|--------------------|------------------|

03:36                                    slowly release this bend.............................
e|------------------|----------------b---|---|---|---|---|---|---|---|-----|-----|-----|-----|-|-b-/\/\/\-|
B|-b-6-rb-----------|--s---13-11-13-13--13--13--13--13--13--13--13--13----13----13----13----13-|-6--------|
G|-5---5--3---5-3---|-8\12---------------------------------------------------------------------|----------|
D|----------5-----5-|--------------------------------------------------------------------------|----------|
A|------------------|--------------------------------------------------------------------------|----------|
E|------------------|--------------------------------------------------------------------------|----------|



p   = Pull Off
h   = Hammer On
b   = Bend
rb  = Release Bend
br  = Bend Release
/   = Slide
/\  = Whammy 


ENJOY............

            
            
Suggest correction
Creating personal tab
Creating personal tab
You can edit any tab online and save it as your Personal.

You can edit, replace or remove any tab part or add personal notes – all changes will be seen only by you.

Personal tabs can be accessed anytime from any device, even offline.
Learn more »
comments
print report bad tab
5 comments total. Showing first comments.
0 reply
oyun_hesabim0 10 Oct 05, 2016 01:44 PM

awsome tab

0 reply
ayreon77 21,833 Oct 05, 2016 01:58 PM

Thx for the kind words and the 5 stars.

+1 reply
rubixnoobix2 20 Jan 17, 2017 11:18 PM

Thanks for tab! Indeed well tricky 3:08,I`ve got it down, now to get up to speed LOL from what I can tell its spot on! note for note

Electra Flying V SteinBerger spirit, Epi Explorer GH ,(2) Peavey Predators
Sigma Martin Line 6 spydr Boss compressor Currently refretting P Predator

guest
You may want to rate the tab now too:
select rating
Wanna post a correction for this tab? Suggest correction