Oops, an error
Loading. Please wait.

Sometimes I Feel Like Screaming bass

version 1
version 1

Whole song

Interactive

5,657 views 3 this week
no commentswrite comment
1 2 3 4 5
3 more votes to show rating
add to favorites
×
Save as Personal and add changes to this tab that will be seen only by you. Learn more ›
×
You can save this tab as Personal to edit and correct it or add notes. All changes will be seen only by you. Learn more »
launch autoscroll
font size
0
reset
guitar tuner
backing track
0:00
0:00
edit
Autoscroll
slow
fast
+/-
esc
set tempo
stop
G||-------|-------|-------|-------|-------|-------|-------|-------|
D||-------|-------|-------|-------|-------|-------|-------|-------|
A||-------|-------|-------|-------|-------|-------|-------|-------|
E||-------|-------|-------|-------|-------|-------|-------|-------|


  E  E  E  E  E  E  E  E     E  E  E  E  E  E  E  E   
--------------------------|--------------------------|
--------------------------|--------------------------|
--5--5--5--5--5--5--5--5--|--5--5--5--5--5--5-----3--|
--------------------------|--------------------5-----|


  E  E  E  E  E  E  E  E     E  E  E  E  E  E  E  E   
--------------------------|--------------------------|
--------------------------|--------------------------|
--5--5--5--5--5--5--5--5--|--5--5--5--5--5--5-----3--|
--------------------------|--------------------5-----|


  E  E  E  E  E  E  E  E     E  E  E  E  E  E  E  E   
--------------------------|--------------------------|
--------------------------|--------------------------|
--5--5--5--5--5--5--5--5--|--5--5--5--5--5--5-----3--|
--------------------------|--------------------5-----|


  E  E  E  E  E  E  E  E     E  E  E  E  E  E  E  E                           
--------------------------|--------------------------|-------|-------|-------|
--------------------------|--------------------------|-------|-------|-------|
--5--5--5--5--5--5--5--5--|--5--5--5--5--5--5-----3--|-------|-------|-------|
--------------------------|--------------------5-----|-------|-------|-------|


          Q    E  E  E  E  E  E     E  E  E  E  E  E  E  E   
-------|-------------------------|--------------------------|
-------|-------------------------|--------------------------|
-------|--5----5--5--5--5--5--5--|--5--5--5--5--5--5-----3--|
-------|-------------------------|--------------------5-----|


  E  E  E  E  E  E  E  E     E  E  E  E  E  E  E  E   
--------------------------|--------------------------|
--------------------------|--------------------------|
--5--5--5--5--5--5--5--5--|--5--5--5--5--5--5-----3--|
--------------------------|--------------------5-----|


  E  E  E  E  E  E  E  E     E  E  E  E  E  E  E  E   
--------------------------|--------------------------|
--------------------------|--------------------------|
--5--5--5--5--5--5--5--5--|--5--5--5--5--5--5-----3--|
--------------------------|--------------------5-----|


  E  E  E  E  E  E  E  E     E  E  E  E  E  E  E  E     E  E  Q    E  E  Q     
--------------------------|--------------------------|--------7---------------|
--------------------------|--------------------------|-----7-------------8----|
--5--5--5--5--5--5--5--5--|--5--5--5--5--5--5-----3--|--5-------------8-------|
--------------------------|--------------------5-----|-------------6----------|


  E   E   Q    E  E  Q       E  E  Q    E   E   Q       Q    E  E  E  E  E  E   
--------------------------|--------------------------|-------------------------|
---------10----------7----|--------8-----------10----|-------------------------|
-----10-----------7-------|-----8----------10--------|-------------------------|
--8------------5----------|--6----------8------------|--3----3--3--3--3--3--3--|


  E  E  Q    E  E  Q       E   E   Q    E  E  Q       E  E  Q    E   E   Q     
--------7---------------|--------------------------|--------------------------|
-----7-------------8----|---------10----------7----|--------8-----------10----|
--5-------------8-------|-----10-----------7-------|-----8----------10--------|
-------------6----------|--8------------5----------|--6----------8------------|


  Q    E  E  E  E  E  E     E  S S S S E  H           E  S S S S E  H         
-------------------------|-------------------------|-------------------------|
-------------------------|-------------------------|-------------------------|
-------------------------|-------------1--L--------|-------------3--L--------|
--3----3--3--3--3--3--3--|--1--1-1-1-1-------------|--1--1-1-1-1-------------|


  E  S S S S E  H           E  S S S S E  H           E  S S S S E  H         
-------------------------|-------------------------|-------------------------|
-------------------------|-------------------------|-------------------------|
-------------4--L--------|-------------6--L--------|-------------1--L--------|
--4--4-4-4-4-------------|--4--4-4-4-4-------------|--1--1-1-1-1-------------|


  E  S S S S E  H           E  S S S S E  H           E  S S S S E  H         
-------------------------|-------------------------|-------------------------|
-------------------------|-------------------------|-------------------------|
-------------3--L--------|-------------4--L--------|-------------6--L--------|
--1--1-1-1-1-------------|--4--4-4-4-4-------------|--4--4-4-4-4-------------|


  W                   E  E  E  E  E  E  E  E     E  E  E  E  E  E  E  E   
-------------------|--------------------------|--------------------------|
-------------------|--------------------------|--------------------------|
--L----------------|--5--5--5--5--5--5--5--5--|--5--5--5--5--5--5-----3--|
-------------------|--------------------------|--------------------5-----|


  E  E  E  E  E  E  E  E     E  E  E  E  E  E  E  E   
--------------------------|--------------------------|
--------------------------|--------------------------|
--5--5--5--5--5--5--5--5--|--5--5--5--5--5--5-----3--|
--------------------------|--------------------5-----|


  E  E  E  E  E  E  E  E     E  E  E  E  E  E  E  E   
--------------------------|--------------------------|
--------------------------|--------------------------|
--5--5--5--5--5--5--5--5--|--5--5--5--5--5--5-----3--|
--------------------------|--------------------5-----|


  E  E  E  E  E  E  E  E     E  E  E  E  E  E  E  E     E  E  Q    E  E  Q     
--------------------------|--------------------------|--------7----------3----|
--------------------------|--------------------------|-----7----------3-------|
--5--5--5--5--5--5--5--5--|--5--5--5--5--5--5-----3--|--5----------1----------|
--------------------------|--------------------5-----|------------------------|


  E  E  Q    E  E  Q       E  E  Q    E  E  Q       Q    E  E  E  E  E  E   
--------5----------2----|--------3----------5----|-------------------------|
-----5----------2-------|-----3----------5-------|-------------------------|
--3----------0----------|--1----------3----------|-------------------------|
------------------------|------------------------|--3----3--3--3--3--3--3--|


  E  E  E  E  E  E  E  E     E  E  E  E  E  E  E  E   
--------------------------|--------------------------|
--------------------------|--------------------------|
--5--5--5--5--5--5--5--5--|--5--5--5--5--5--5-----3--|
--------------------------|--------------------5-----|


  E  E  E  E  E  E  E  E     E  E  E  E  E  E  E  E   
--------------------------|--------------------------|
--------------------------|--------------------------|
--5--5--5--5--5--5--5--5--|--5--5--5--5--5--5-----3--|
--------------------------|--------------------5-----|


  E  E  E  E  E  E  E  E     E  E  E  E  E  E  E  E   
--------------------------|--------------------------|
--------------------------|--------------------------|
--5--5--5--5--5--5--5--5--|--5--5--5--5--5--5-----3--|
--------------------------|--------------------5-----|


  E  E  E  E  E  E  E  E     E  E  E  E  E  E  E  E     E  E  Q    E  E  Q     
--------------------------|--------------------------|--------7---------------|
--------------------------|--------------------------|-----7-------------8----|
--5--5--5--5--5--5--5--5--|--5--5--5--5--5--5-----3--|--5-------------8-------|
--------------------------|--------------------5-----|-------------6----------|


  E   E   Q    E  E  Q       E  E  Q    E   E   Q       Q    E  E  E  E  E  E   
--------------------------|--------------------------|-------------------------|
---------10----------7----|--------8-----------10----|-------------------------|
-----10-----------7-------|-----8----------10--------|-------------------------|
--8------------5----------|--6----------8------------|--3----3--3--3--3--3--3--|


  E  E  Q    E  E  Q       E   E   Q    E  E  Q       E  E  Q    E   E   Q     
--------7---------------|--------------------------|--------------------------|
-----7-------------8----|---------10----------7----|--------8-----------10----|
--5-------------8-------|-----10-----------7-------|-----8----------10--------|
-------------6----------|--8------------5----------|--6----------8------------|


  Q    E  E  E  E  E  E     E  S S S S E  H           E  S S S S E  H         
-------------------------|-------------------------|-------------------------|
-------------------------|-------------------------|-------------------------|
-------------------------|-------------1--L--------|-------------3--L--------|
--3----3--3--3--3--3--3--|--1--1-1-1-1-------------|--1--1-1-1-1-------------|


  E  S S S S E  H           E  S S S S E  H           E  S S S S E  H         
-------------------------|-------------------------|-------------------------|
-------------------------|-------------------------|-------------------------|
-------------4--L--------|-------------6--L--------|-------------1--L--------|
--4--4-4-4-4-------------|--4--4-4-4-4-------------|--1--1-1-1-1-------------|


  E  S S S S E  H           E  S S S S E  H           E  S S S S E  H         
-------------------------|-------------------------|-------------------------|
-------------------------|-------------------------|-------------------------|
-------------3--L--------|-------------4--L--------|-------------6--L--------|
--1--1-1-1-1-------------|--4--4-4-4-4-------------|--4--4-4-4-4-------------|


  W                   E  E  Q    E  E  Q       E   E   Q    E  E  Q     
-------------------|--------7---------------|--------------------------|
-------------------|-----7-------------8----|---------10----------7----|
--L----------------|--5-------------8-------|-----10-----------7-------|
-------------------|-------------6----------|--8------------5----------|


  E  E  Q    E   E   Q       Q    E  E  E  E  E  E     E  E  Q    E  E  Q     
--------------------------|-------------------------|--------7---------------|
--------8-----------10----|-------------------------|-----7-------------8----|
-----8----------10--------|-------------------------|--5-------------8-------|
--6----------8------------|--3----3--3--3--3--3--3--|-------------6----------|


  E   E   Q    E  E  Q       E  E  Q    E   E   Q       Q    E  E  E  E  E  E   
--------------------------|--------------------------|-------------------------|
---------10----------7----|--------8-----------10----|-------------------------|
-----10-----------7-------|-----8----------10--------|-------------------------|
--8------------5----------|--6----------8------------|--3----3--3--3--3--3--3--|


  E  E  Q    E  E  Q       E   E   Q    E  E  Q       E  E  Q    E   E   Q     
--------7---------------|--------------------------|--------------------------|
-----7-------------8----|---------10----------7----|--------8-----------10----|
--5-------------8-------|-----10-----------7-------|-----8----------10--------|
-------------6----------|--8------------5----------|--6----------8------------|


  Q    E  E  E  E  E  E     E  E  Q    E  E  Q       E   E   Q    E  E  Q     
-------------------------|--------7---------------|--------------------------|
-------------------------|-----7-------------8----|---------10----------7----|
-------------------------|--5-------------8-------|-----10-----------7-------|
--3----3--3--3--3--3--3--|-------------6----------|--8------------5----------|


  E  E  Q    E   E   Q       Q    E  E  E  E  E  E     E  E  Q    E  E  Q     
--------------------------|-------------------------|--------7---------------|
--------8-----------10----|-------------------------|-----7-------------8----|
-----8----------10--------|-------------------------|--5-------------8-------|
--6----------8------------|--3----3--3--3--3--3--3--|-------------6----------|


  E   E   Q    E  E  Q       E  E  Q    E   E   Q       Q    E  E  E  E  E  E   
--------------------------|--------------------------|-------------------------|
---------10----------7----|--------8-----------10----|-------------------------|
-----10-----------7-------|-----8----------10--------|-------------------------|
--8------------5----------|--6----------8------------|--3----3--3--3--3--3--3--|


  E  E  Q    E  E  Q       E   E   Q    E  E  Q       E  E  Q    E   E   Q     
--------7---------------|--------------------------|--------------------------|
-----7-------------8----|---------10----------7----|--------8-----------10----|
--5-------------8-------|-----10-----------7-------|-----8----------10--------|
-------------6----------|--8------------5----------|--6----------8------------|


  Q    E  E  E  E  E  E     E  S S S S E  H           E  S S S S E  H         
-------------------------|-------------------------|-------------------------|
-------------------------|-------------------------|-------------------------|
-------------------------|-------------1--L--------|-------------3--L--------|
--3----3--3--3--3--3--3--|--1--1-1-1-1-------------|--1--1-1-1-1-------------|


  E  S S S S E  H           E  S S S S E  H           E  S S S S E  H         
-------------------------|-------------------------|-------------------------|
-------------------------|-------------------------|-------------------------|
-------------4--L--------|-------------6--L--------|-------------1--L--------|
--4--4-4-4-4-------------|--4--4-4-4-4-------------|--1--1-1-1-1-------------|


  E  S S S S E  H           E  S S S S E  H           E  S S S S E  H         
-------------------------|-------------------------|-------------------------|
-------------------------|-------------------------|-------------------------|
-------------3--L--------|-------------4--L--------|-------------6--L--------|
--1--1-1-1-1-------------|--4--4-4-4-4-------------|--4--4-4-4-4-------------|


  E  S S S S E  H           E  S S S S E  H           E  S S S S E  H         
-------------------------|-------------------------|-------------------------|
-------------------------|-------------------------|-------------------------|
-------------1--L--------|-------------3--L--------|-------------4--L--------|
--1--1-1-1-1-------------|--1--1-1-1-1-------------|--4--4-4-4-4-------------|


  E  S S S S E  H           E  S S S S E  H           E  S S S S E  H         
-------------------------|-------------------------|-------------------------|
-------------------------|-------------------------|-------------------------|
-------------6--L--------|-------------1--L--------|-------------3--L--------|
--4--4-4-4-4-------------|--1--1-1-1-1-------------|--1--1-1-1-1-------------|


  E  S S S S E  H           E  S S S S E  H           E   E   Q    E  E  Q     
-------------------------|-------------------------|---------11----------7----|
-------------------------|-------------------------|-----11-----------7-------|
-------------4--L--------|-------------6--L--------|--9------------5----------|
--4--4-4-4-4-------------|--4--4-4-4-4-------------|--------------------------|


  E  E  Q    E  E  Q       E  E  Q    E  E  Q       Q    E  E  E  E  E  E   
--------9----------6----|--------7----------9----|-------------------------|
-----9----------6-------|-----7----------9-------|-------------------------|
--7----------4----------|--5----------7----------|--2----2--2--2--2--2--2--|
------------------------|------------------------|-------------------------|


  E   E   Q    E  E  Q       E  E  Q    E  E  Q       E  E  Q    E  E  Q     
---------11----------7----|--------9----------6----|--------7----------9----|
-----11-----------7-------|-----9----------6-------|-----7----------9-------|
--9------------5----------|--7----------4----------|--5----------7----------|
--------------------------|------------------------|------------------------|


  Q    E  E  E  E  E  E     E  E  Q    E  E  Q       E  E  Q    E  E  Q     
-------------------------|--------4---------------|------------------------|
-------------------------|-----4-------------5----|--------7----------4----|
--2----2--2--2--2--2--2--|--2-------------5-------|-----7----------4-------|
-------------------------|-------------3----------|--5----------2----------|


  E  E  Q    E  E  Q       Q    E  E  E  E  E  E     E  E  Q    E  E  Q     
------------------------|-------------------------|--------4---------------|
--------5----------7----|-------------------------|-----4-------------5----|
-----5----------7-------|-------------------------|--2-------------5-------|
--3----------5----------|--0----0--0--0--0--0--0--|-------------3----------|


  E  E  Q    E  E  Q       E  E  Q    E  E  Q       Q    E  E  E  E  E  E   
------------------------|------------------------|-------------------------|
--------7----------4----|--------5----------7----|-------------------------|
-----7----------4-------|-----5----------7-------|-------------------------|
--5----------2----------|--3----------5----------|--0----0--0--0--0--0--0--|


  E  E  Q    E   E   Q        E   E   Q    E  E  Q     
--------9-----------------|---------------------------|
-----9--------------10----|----------12----------9----|
--7-------------10--------|------12-----------9-------|
-------------8------------|--10------------7----------|


  E   E   Q     E   E   Q       Q    E  E  E  E  E  E   
-----------------------------|-------------------------|
---------10------------12----|-------------------------|
-----10------------12--------|-------------------------|
--8------------10------------|--5----5--5--5--5--5--5--|


  E  E  Q    E   E   Q        E   E   Q    E  E  Q     
--------9-----------------|---------------------------|
-----9--------------10----|----------12----------9----|
--7-------------10--------|------12-----------9-------|
-------------8------------|--10------------7----------|


  E   E   Q     E   E   Q       Q    E  E  E  E  E  E   
-----------------------------|-------------------------|
---------10------------12----|-------------------------|
-----10------------12--------|-------------------------|
--8------------10------------|--5----5--5--5--5--5--5--|


  E  E  Q    E  E  Q       E  E  Q    E  E  Q       E  E  Q    E  E  Q     
--------2---------------|------------------------|------------------------|
-----2-------------3----|--------5----------2----|--------3----------5----|
--0-------------3-------|-----5----------2-------|-----3----------5-------|
-------------1----------|--3----------0----------|--1----------3----------|


   W                   E  E  Q    E  E  Q       E  E  Q    E  E  Q     
--------------------|--------2---------------|------------------------|
--------------------|-----2-------------3----|--------5----------2----|
--------------------|--0-------------3-------|-----5----------2-------|
--12----------------|-------------1----------|--3----------0----------|


  E  E  Q    E  E  Q        W                   E  E  Q    E  E  Q     
------------------------|--------------------|--------7---------------|
--------3----------5----|--------------------|-----7-------------8----|
-----3----------5-------|--------------------|--5-------------8-------|
--1----------3----------|--12----------------|-------------6----------|


  E   E   Q    E  E  Q       E  E  Q    E   E   Q       Q    E  E  E  E  E  E   
--------------------------|--------------------------|-------------------------|
---------10----------7----|--------8-----------10----|-------------------------|
-----10-----------7-------|-----8----------10--------|-------------------------|
--8------------5----------|--6----------8------------|--3----3--3--3--3--3--3--|


  E  E  Q    E  E  Q       E   E   Q    E  E  Q       E  E  Q    E   E   Q     
--------7---------------|--------------------------|--------------------------|
-----7-------------8----|---------10----------7----|--------8-----------10----|
--5-------------8-------|-----10-----------7-------|-----8----------10--------|
-------------6----------|--8------------5----------|--6----------8------------|


  W                  
-------------------||
--L----------------||
-------------------||
-------------------||




Duration Legend
---------------
W - whole
H - half
Q - quarter
E - 8th
S - 16th
T - 32nd
X - 64th
. - note dotted
|-n-|  - n-tuplets


Tablature Legend
----------------
L - tied note
x - dead note
g - grace note
(n) - ghost note
> - accentuded note
NH - natural harmonic
AH - artificial harmonic
TH - tapped harmonic
SH - semi harmonic
PH - pitch harmonic
h - hammer on
p - pull off
b - bend
br - bendRelease
pb - preBend
pbr - preBendRelease
brb - bendReleaseBend
\n/ - tremolo bar dip
\n - tremolo bar dive
-/n - tremolo bar Release up
/n\ - tremolo bar inverted dip
/n - tremolo bar return
-\n - tremolo bar Release down
S - shift slide
s - legato slide
/ -  slide into from below or out of upwards
\ -  slide into from above or out of downwards
~ - vibrato
W - wide vibrato
tr - trill
TP - tremolo picking
T - tapping
S - slap
P - pop
< - fade in
^ - brush up
v - brush down

            
            
Suggest correction
Creating personal tab
Creating personal tab
You can edit any tab online and save it as your Personal.

You can edit, replace or remove any tab part or add personal notes – all changes will be seen only by you.

Personal tabs can be accessed anytime from any device, even offline.
Learn more »
Give kudos to tab author, rate the tab!
1 2 3 4 5
comments
print report bad tab
guest
Wanna post a correction for this tab? Suggest correction