Oops, an error
Loading. Please wait.

Sometimes I Feel Like Screaming tab

version 2
version 2

Whole song

Interactive

70,662 views 144 this week
1 commentread comment
1 2 3 4 5
x 3
add to favorites
×
Save as Personal and add changes to this tab that will be seen only by you. Learn more ›
×
You can save this tab as Personal to edit and correct it or add notes. All changes will be seen only by you. Learn more »
launch autoscroll
font size
0
reset
how to read this tab
guitar tuner
backing track
0:00
0:00
edit
Autoscroll
slow
fast
+/-
esc
set tempo
stop
Author
Unregistered
Guitar 1 (acoustic)
Notice---------



     E  E  E  Q    E  S S E     E  E  S  S Q    E  E  E   
e|--------------------------|---------------------------|
B|--------5--6--------------|---------------------------|
G|--------------------------|-----x--7s-9-5-------------|
D|-----7-------------7-8-5--|--L---------------0--5--3--|
A|--5-----------------------|---------------------------|
E|--------------------------|---------------------------|


                                  ^                                               
    E  E  S  S Q    E  S  S E     W                   E  S  S E  E  E  E  S S E   
e|-----------------------------|--3----------------|-----------------------------|
B|-----------------------------|--3----------------|----------5--6---------------|
G|-----------------------------|--0----------------|-----------------------------|
D|--L--x--7s-8-5----L--3p-2-0--|--0----------------|-----5h-7-------------7-8-5--|
A|-----------------------------|-------------------|--5----------------8---------|
E|-----------------------------|-------------------|----------------6------------|


    E  E  S  S E  E  E  E  E     E  E  S  S Q    E  S  S E     W                 
e|----------------------------|-----------------------------|-------------------|
B|----------------------------|-----------------------------|-------------------|
G|-----0--7s-9-5--------------|---------------------5s-7-7--|--L----------------|
D|-------------------2--5--3--|--------7s-8-5---------------|-------------------|
A|----------------0-----------|-----8-----------------------|-------------------|
E|--8-------------------------|--6--------------------------|-------------------|


    Asus4        D/A#        Gm                A#6     C      Csus2      
    >            >           >                 >       >      >          
    E     S S E  E    E  S S E  S S    S S S S E   S S E  S S E     S S  
e|--5-----5-5-5--5----L------3--3-3-|--3-3-3-3-3---3-3-3--3-3-3-----3-3-|
B|--3-----3-3-3--3----L--3-3-3--3-3-|--3-3-3-3-6---6-6-5--5-5-3-----3-3-|
G|--2-----2-2-2--3----L--3-3-3--3-3-|--3-3-3-3-3---3-3-5--5-5-5-----5-5-|
D|--2-------------------------------|-----------------------------------|
A|----------------------------------|-----------------------------------|
E|----------------------------------|-----------------------------------|


    >         >         >                 >      >      >       
    E  S S E  E  E  S S E  S S    S S S S E  S S E  S S E  S S  
e|--5--5-5-5--5--L------3--3-3-|--3-3-3-3-3--3-3-3--3-3-3--3-3-|
B|--3--3-3-3--3--L--3-3-3--3-3-|--3-3-3-3-6--6-6-5--5-5-3--3-3-|
G|--2--2-2-2--3--L--3-3-3--3-3-|--3-3-3-3-3--3-3-5--5-5-5--5-5-|
D|--2--------------------------|-------------------------------|
A|-----------------------------|-------------------------------|
E|-----------------------------|-------------------------------|


    >         >         >                 >      >      >       
    E  S S E  E  E  S S E  S S    S S S S E  S S E  S S E  S S  
e|--5--5-5-5--5--L------3--3-3-|--3-3-3-3-3--3-3-3--3-3-3--3-3-|
B|--3--3-3-3--3--L--3-3-3--3-3-|--3-3-3-3-6--6-6-5--5-5-3--3-3-|
G|--2--2-2-2--3--L--3-3-3--3-3-|--3-3-3-3-3--3-3-5--5-5-5--5-5-|
D|--2--------------------------|-------------------------------|
A|-----------------------------|-------------------------------|
E|-----------------------------|-------------------------------|


    >         >         >                 >      >      >     
    E  S S E  E  E  S S E  S S    S S S S E  S S E  S S Q     
e|--5--5-5-5--5--L------3--3-3-|--3-3-3-3-3--3-3-3--3-3-3----|
B|--3--3-3-3--3--L--3-3-3--3-3-|--3-3-3-3-6--6-6-5--5-5-3----|
G|--2--2-2-2--3--L--3-3-3--3-3-|--3-3-3-3-3--3-3-5--5-5-5----|
D|--2--------------------------|-----------------------------|
A|-----------------------------|-----------------------------|
E|-----------------------------|-----------------------------|


    E  E  E  E  E  E  E  E     E  E  S  S E  E  E  E  E   
e|--------------------------|----------------------------|
B|--------5--6--------------|----------------------------|
G|--------------------------|-----x--7h-9-5--------------|
D|-----7--------------7--5--|--L----------------0--5--3--|
A|--5--------------8--------|----------------0-----------|
E|--------------6-----------|--8-------------------------|


                           ^                          >         >         >       
    E  E  S S E  E  S  S S E.     W                   E  S S E  E  E  S S E  S S  
e|-------------------------3---|--L----------------|--5--5-5-5--5--L------3--3-3-|
B|-------------------------3---|--L----------------|--3--3-3-3--3--L--3-3-3--3-3-|
G|-------------------------0---|--L----------------|--2--2-2-2--3--L--3-3-3--3-3-|
D|-----x--8-7-5-----3p-2-0-0---|--L----------------|--2--------------------------|
A|---------------3-------------|-------------------|-----------------------------|
E|--6--------------------------|-------------------|-----------------------------|


            >      >      >         >         >         >       
    S S S S E  S S E  S S E  S S    E  S S E  E  E  S S E  S S  
e|--3-3-3-3-3--3-3-3--3-3-3--3-3-|--5--5-5-5--5--L------3--3-3-|
B|--3-3-3-3-6--6-6-5--5-5-3--3-3-|--3--3-3-3--3--L--3-3-3--3-3-|
G|--3-3-3-3-3--3-3-5--5-5-5--5-5-|--2--2-2-2--3--L--3-3-3--3-3-|
D|-------------------------------|--2--------------------------|
A|-------------------------------|-----------------------------|
E|-------------------------------|-----------------------------|


            >      >      >         >         >         >       
    S S S S E  S S E  S S E  S S    E  S S E  E  E  S S E  S S  
e|--3-3-3-3-3--3-3-3--3-3-3--3-3-|--5--5-5-5--5--L------3--3-3-|
B|--3-3-3-3-6--6-6-5--5-5-3--3-3-|--3--3-3-3--3--L--3-3-3--3-3-|
G|--3-3-3-3-3--3-3-5--5-5-5--5-5-|--2--2-2-2--3--L--3-3-3--3-3-|
D|-------------------------------|--2--------------------------|
A|-------------------------------|-----------------------------|
E|-------------------------------|-----------------------------|


            >      >      >         >         >         >       
    S S S S E  S S E  S S E  S S    E  S S E  E  E  S S E  S S  
e|--3-3-3-3-3--3-3-3--3-3-3--3-3-|--5--5-5-5--5--L------3--3-3-|
B|--3-3-3-3-6--6-6-5--5-5-3--3-3-|--3--3-3-3--3--L--3-3-3--3-3-|
G|--3-3-3-3-3--3-3-5--5-5-5--5-5-|--2--2-2-2--3--L--3-3-3--3-3-|
D|-------------------------------|--2--------------------------|
A|-------------------------------|-----------------------------|
E|-------------------------------|-----------------------------|


            >      >      >                                             
    S S S S E  S S E  S S Q                                             
e|--3-3-3-3-3--3-3-3--3-3-3----|-------------------|-------------------|
B|--3-3-3-3-6--6-6-5--5-5-3----|-------------------|-------------------|
G|--3-3-3-3-3--3-3-5--5-5-5----|-------------------|-------------------|
D|-----------------------------|-------------------|-------------------|
A|-----------------------------|-------------------|-------------------|
E|-----------------------------|-------------------|-------------------| 


    >         >         >                 >      >      >       
    E  S S E  E  E  S S E  S S    S S S S E  S S E  S S E  S S  
e|--5--5-5-5--5--L------3--3-3-|--3-3-3-3-3--3-3-3--3-3-3--3-3-|
B|--3--3-3-3--3--L--3-3-3--3-3-|--3-3-3-3-6--6-6-5--5-5-3--3-3-|
G|--2--2-2-2--3--L--3-3-3--3-3-|--3-3-3-3-3--3-3-5--5-5-5--5-5-|
D|--2--------------------------|-------------------------------|
A|-----------------------------|-------------------------------|
E|-----------------------------|-------------------------------|


    >         >         >                 >      >      >       
    E  S S E  E  E  S S E  S S    S S S S E  S S E  S S E  S S  
e|--5--5-5-5--5--L------3--3-3-|--3-3-3-3-3--3-3-3--3-3-3--3-3-|
B|--3--3-3-3--3--L--3-3-3--3-3-|--3-3-3-3-6--6-6-5--5-5-3--3-3-|
G|--2--2-2-2--3--L--3-3-3--3-3-|--3-3-3-3-3--3-3-5--5-5-5--5-5-|
D|--2--------------------------|-------------------------------|
A|-----------------------------|-------------------------------|
E|-----------------------------|-------------------------------|


    >         >         >                 >      >      >       
    E  S S E  E  E  S S E  S S    S S S S E  S S E  S S E  S S  
e|--5--5-5-5--5--L------3--3-3-|--3-3-3-3-3--3-3-3--3-3-3--3-3-|
B|--3--3-3-3--3--L--3-3-3--3-3-|--3-3-3-3-6--6-6-5--5-5-3--3-3-|
G|--2--2-2-2--3--L--3-3-3--3-3-|--3-3-3-3-3--3-3-5--5-5-5--5-5-|
D|--2--------------------------|-------------------------------|
A|-----------------------------|-------------------------------|
E|-----------------------------|-------------------------------|


    >         >         >                 >      >      >     
    E  S S E  E  E  S S E  S S    S S S S E  S S E  S S Q     
e|--5--5-5-5--5--L------3--3-3-|--3-3-3-3-3--3-3-3--3-3-3----|
B|--3--3-3-3--3--L--3-3-3--3-3-|--3-3-3-3-6--6-6-5--5-5-3----|
G|--2--2-2-2--3--L--3-3-3--3-3-|--3-3-3-3-3--3-3-5--5-5-5----|
D|--2--------------------------|-----------------------------|
A|-----------------------------|-----------------------------|
E|-----------------------------|-----------------------------|


    H        H           H        H           H        H         
e|--1-----------------|--0--------0--------|-----------0--------|
B|--3--------3--------|--1--------1--------|--3--------1--------|
G|--2--------3--------|--0--------2--------|--3--------0--------|
D|--0--------3--------|--2--------2--------|--3--------2--------|
A|-----------1--------|--3-----------------|--1--------3--------|
E|--------------------|--------------------|--------------------|


                        >         >         >       
    W                   E  S S E  E  E  S S E  S S  
e|--3----------------|--5--5-5-5--5--L------3--3-3-|
B|--3----------------|--3--3-3-3--3--L--3-3-3--3-3-|
G|--0----------------|--2--2-2-2--3--L--3-3-3--3-3-|
D|--0----------------|--2--------------------------|
A|--2----------------|-----------------------------|
E|--3----------------|-----------------------------|


            >      >      >         >         >         >       
    S S S S E  S S E  S S E  S S    E  S S E  E  E  S S E  S S  
e|--3-3-3-3-3--3-3-3--3-3-3--3-3-|--5--5-5-5--5--L------3--3-3-|
B|--3-3-3-3-6--6-6-5--5-5-3--3-3-|--3--3-3-3--3--L--3-3-3--3-3-|
G|--3-3-3-3-3--3-3-5--5-5-5--5-5-|--2--2-2-2--3--L--3-3-3--3-3-|
D|-------------------------------|--2--------------------------|
A|-------------------------------|-----------------------------|
E|-------------------------------|-----------------------------|


            >      >      >         >         >         >       
    S S S S E  S S E  S S E  S S    E  S S E  E  E  S S E  S S  
e|--3-3-3-3-3--3-3-3--3-3-3--3-3-|--5--5-5-5--5--L------3--3-3-|
B|--3-3-3-3-6--6-6-5--5-5-3--3-3-|--3--3-3-3--3--L--3-3-3--3-3-|
G|--3-3-3-3-3--3-3-5--5-5-5--5-5-|--2--2-2-2--3--L--3-3-3--3-3-|
D|-------------------------------|--2--------------------------|
A|-------------------------------|-----------------------------|
E|-------------------------------|-----------------------------|


            >      >      >         >         >         >       
    S S S S E  S S E  S S E  S S    E  S S E  E  E  S S E  S S  
e|--3-3-3-3-3--3-3-3--3-3-3--3-3-|--5--5-5-5--5--L------3--3-3-|
B|--3-3-3-3-6--6-6-5--5-5-3--3-3-|--3--3-3-3--3--L--3-3-3--3-3-|
G|--3-3-3-3-3--3-3-5--5-5-5--5-5-|--2--2-2-2--3--L--3-3-3--3-3-|
D|-------------------------------|--2--------------------------|
A|-------------------------------|-----------------------------|
E|-------------------------------|-----------------------------|


            >      >      >                                             
    S S S S E  S S E  S S Q                                             
e|--3-3-3-3-3--3-3-3--3-3-3----|-------------------|-------------------|
B|--3-3-3-3-6--6-6-5--5-5-3----|-------------------|-------------------|
G|--3-3-3-3-3--3-3-5--5-5-5----|-------------------|-------------------|
D|-----------------------------|-------------------|-------------------|
A|-----------------------------|-------------------|-------------------|
E|-----------------------------|-------------------|-------------------| 

 

Guitar 2 (acoustic)
Notice---------



                                     E  E  Q    E  E  Q     
e|-------|-------|-------|-------|------------------------|
B|-------|-------|-------|-------|------------------------|
G|-------|-------|-------|-------|--------7---------------|
D|-------|-------|-------|-------|-----7-------------8----|
A|-------|-------|-------|-------|--5-------------8-------|
E|-------|-------|-------|-------|-------------6----------|


    E   E   Q    E  E  Q       E  E  Q    E  E  Q       W                         
e|--------------------------|------------------------|-------------------|-------|
B|--------------------------|------------------------|-------------------|-------|
G|--------------------------|-------------------5----|-------------------|-------|
D|---------10----------7----|--------8-------5-------|--5----------------|-------|
A|-----10-----------7-------|-----8-------3----------|--5----------------|-------|
E|--8------------5----------|--6---------------------|--3----------------|-------| 


Guitar 3 (overdrive)
Notice--------- 

      +12 frets                                 
      TH        TH   TH   TH        TH  TH  TH  
      E         E    E    Q    E    S   S   E   
e|---------------------------------------------|
B|-----------------<>5--<>6--------------------|
G|---------------------------------------------|
D|------------<>7-----------------<>7-<>8-<>5--|
A|--<>5----------------------------------------|
E|---------------------------------------------|


            TH    TH     TH   TH   TH            TH    TH           TH  TH  
    E  E    E     Q      E    E    E     E  E    E     Q    E  S    S   E   
e|------------------------------------|------------------------------------|
B|------------------------------------|------------------------------------|
G|-----x--<>7b--<>5-------------------|------------------------------------|
D|--L-----------------------<>5--<>3--|--L--x--<>7b--<>5-------3p-<>2------|
A|---------------------<>5------------|-------------------------------<>5--|
E|------------------------------------|------------------------------------|


                  TH   TH   TH      TH   TH   TH   TH        TH  TH  TH  
    H        E    E    E    E       E    E    E    Q    E    S   S   E   
e|-----------------------------|----------------------------------------|
B|-----------------------------|------------<>5--<>6--------------------|
G|-------------------<>5--<>7--|----------------------------------------|
D|--------------<>5------------|-------<>7-----------------<>7-<>8-<>5--|
A|--L--------L-----------------|--<>5-----------------------------------|
E|-----------------------------|----------------------------------------|


            TH    TH     TH   TH   TH            TH    TH        TH    TH  
    E  E    E     Q      E    E    E     E  E    E     Q    E    E     E   
e|------------------------------------|-----------------------------------|
B|------------------------------------|------------------------------<>3--|
G|-----x--<>7b--<>5-------------------|------------------------<>5b-------|
D|--L-----------------------<>5--<>3--|--L--x--<>7b--<>5------------------|
A|---------------------<>5------------|-----------------------------------|
E|------------------------------------|-----------------------------------|


    W                   E  S S S S E  Q    E  S S    E  S S S S E  Q    E  S S  
e|-------------------|----------------------------|----------------------------|
B|--L----------------|----------------------------|----------------------------|
G|-------------------|----------------------------|----------------------------|
D|-------------------|--3----------3--L-------x-x-|--3----------5--L-------x-x-|
A|-------------------|--3--x-x-x-x-1--L-------x-x-|--3--x-x-x-x-3--L-------x-x-|
E|-------------------|--1--x-x-x-x----------------|--1--x-x-x-x----------------|


    E  S S S S E  Q    E  S S    E  S S S S E  H         
e|----------------------------|-------------------------|
B|----------------------------|-------------------------|
G|----------------------------|-------------------------|
D|--6----------6--L-------x-x-|--6----------8--L--------|
A|--6--x-x-x-x-4--L-------x-x-|--6--x-x-x-x-6--L--------|
E|--4--x-x-x-x----------------|--4--x-x-x-x-------------|


    E  S S S S E  Q    E  S S    E  S S S S E  Q    E  S S  
e|----------------------------|----------------------------|
B|----------------------------|----------------------------|
G|----------------------------|----------------------------|
D|--3----------3--L-------x-x-|--3----------5--L-------x-x-|
A|--3--x-x-x-x-1--L-------x-x-|--3--x-x-x-x-3--L-------x-x-|
E|--1--x-x-x-x----------------|--1--x-x-x-x----------------|


    E  S S S S E  Q    E  S S    E  S S S S E  H           W                 
e|----------------------------|-------------------------|-------------------|
B|----------------------------|-------------------------|-------------------|
G|----------------------------|-------------------------|-------------------|
D|--6----------6--L-------x-x-|--6----------8--L--------|--L----------------|
A|--6--x-x-x-x-4--L-------x-x-|--6--x-x-x-x-6--L--------|--L----------------|
E|--4--x-x-x-x----------------|--4--x-x-x-x-------------|-------------------| 


      +12 frets                                                                   
      TH        TH   TH   TH        TH   TH            TH    TH     TH   TH   TH  
      E         E    E    Q    E    E    E     E  E    E     Q      E    E    E   
e|------------------------------------------|------------------------------------|
B|-----------------<>5--<>6-----------------|------------------------------------|
G|------------------------------------------|-----x--<>7b--<>5-------------------|
D|------------<>7-----------------<>7--<>5--|--L-----------------------<>5--<>3--|
A|--<>5-------------------------------------|---------------------<>5------------|
E|------------------------------------------|------------------------------------|


            TH    TH        TH   TH           TH   TH   TH   TH   TH   TH  
    E  E    E     Q    E    E    E     Q      E    E    E    E    E    E   
e|----------------------------------|-------------------------------------|
B|----------------------------------|-------------------------------------|
G|----------------------------------|------------<>5--<>4-------<>7--<>4--|
D|--L--x--<>7b--<>5-------<>3-------|-------<>5------------<>5------------|
A|-----------------------------<>5--|--L----------------------------------|
E|----------------------------------|-------------------------------------|


      TH   TH   TH   TH        TH   TH            TH    TH     TH   TH   TH  
      E    E    E    Q    E    E    E     E  E    E     Q      E    E    E   
e|-------------------------------------|------------------------------------|
B|------------<>5--<>6-----------------|------------------------------------|
G|-------------------------------------|-----x--<>7b--<>5-------------------|
D|-------<>7-----------------<>7--<>5--|--L------------------<>0--<>5--<>3--|
A|--<>5--------------------------------|------------------------------------|
E|-------------------------------------|------------------------------------|


            TH    TH        TH    TH                      
    E  E    E     Q    E    E     E     W                 
e|-----------------------------------|-------------------|
B|------------------------------<>3--|--L----------------|
G|------------------------<>5b-------|-------------------|
D|--L--x--<>7b--<>5------------------|-------------------|
A|-----------------------------------|-------------------|
E|-----------------------------------|-------------------|


    E  S S S S E  Q    E  S S    E  S S S S E  Q    E  S S  
e|----------------------------|----------------------------|
B|----------------------------|----------------------------|
G|----------------------------|----------------------------|
D|--3----------3--L-------x-x-|--3----------5--L-------x-x-|
A|--3--x-x-x-x-1--L-------x-x-|--3--x-x-x-x-3--L-------x-x-|
E|--1--x-x-x-x----------------|--1--x-x-x-x----------------|


    E  S S S S E  Q    E  S S    E  S S S S E  H         
e|----------------------------|-------------------------|
B|----------------------------|-------------------------|
G|----------------------------|-------------------------|
D|--6----------6--L-------x-x-|--6----------8--L--------|
A|--6--x-x-x-x-4--L-------x-x-|--6--x-x-x-x-6--L--------|
E|--4--x-x-x-x----------------|--4--x-x-x-x-------------|


    E  S S S S E  Q    E  S S    E  S S S S E  Q    E  S S  
e|----------------------------|----------------------------|
B|----------------------------|----------------------------|
G|----------------------------|----------------------------|
D|--3----------3--L-------x-x-|--3----------5--L-------x-x-|
A|--3--x-x-x-x-1--L-------x-x-|--3--x-x-x-x-3--L-------x-x-|
E|--1--x-x-x-x----------------|--1--x-x-x-x----------------|


    E  S S S S E  Q    E  S S    E  S S S S E  H         
e|----------------------------|-------------------------|
B|----------------------------|-------------------------|
G|----------------------------|-------------------------|
D|--6----------6--L-------x-x-|--6----------8--L--------|
A|--6----------4--L-------x-x-|--6----------6--L--------|
E|--4--x-x-x-x----------------|--4--x-x-x-x-------------|


      E  E    E  S S  H             H        E  E  Q        H.           E  S S  
e|------------------------------|------------------------|----------------------|
B|------------------------------|------------------------|----------------------|
G|---------------8---10b--------|--10--------L--7--9b----|--9------------L--5-2-|
D|-------8--/10-----------------|------------------------|----------------------|
A|--/10-------------------------|------------------------|----------------------|
E|------------------------------|------------------------|----------------------|


    H         E.  S S  S S  S    H        E  S S Q      
e|----------------------------|------------------------|
B|----------------------------|------------------------|
G|--5b--------L---3-----------|----------------5-5b----|
D|------------------5p-3------|--------------7---------|
A|-----------------------5p-3-|--5--------L------------|
E|----------------------------|------------------------|


    E   H         E   E     S  S      H        E  Q     E    
e|--x-----------------------------|-------------------------|
B|--x--13b------------------------|---------------8---------|
G|-------------------12br--10-12b-|--12-----------9b----9b--|
D|--------------------------------|-------------------------|
A|--------------------------------|-------------------------|
E|--------------------------------|-------------------------|


    E  E    E  E    E  E  E  E    
e|-------------------------------|
B|--L----------------------------|
G|--L--7--3g5--5--1g3--2--0------|
D|---------------------------3b--|
A|-------------------------------|
E|-------------------------------|


                 PM PM PM PM PM PM PM PM PM PM             
    E  Q.     S  T  T  T  T  T  T  T  T  T  T  T  T  T  T  
e|--------------------------------------------10-11-13-15-|
B|-----------------------------------10-11-13-------------|
G|-----------------------------10-12----------------------|
D|--L--5------L-------10-12-14----------------------------|
A|--------------12-13-------------------------------------|
E|--------------------------------------------------------|


     E   Q     H          S  S     S   S  H         E  E   E    
e|--15b-------15b--------15-13-|--15p-13---------------x--12b--|
B|-----------------------------|---------15b-------------------|
G|-----------------------------|-------------------------------|
D|-----------------------------|-------------------------------|
A|-----------------------------|-------------------------------|
E|-----------------------------|-------------------------------|


     E   E   E   E      E  Q      E   
e|---L--12--10-----------------------|
B|--------------13-------------------|
G|------------------10g12--9b--------|
D|-------------------------------10--|
A|-----------------------------------|
E|-----------------------------------|


                  PM PM PM PM PM PM PM PM PM PM PM          
     H         S  T  T  T  T  T  T  T  T  T  T  T  T  T  T  
e|------------------------------------------------15-17-18-|
B|---------------------------------------15-17-18----------|
G|------------------------------14-15-17-------------------|
D|--12~--------L----------15-17----------------------------|
A|---------------15-17-19----------------------------------|
E|---------------------------------------------------------|


                                                           TH      
     E   Q     H          S  S     S     S  H        E     Q       
e|--18b-------20b--------20-17-|------------------------<>12b~----|
B|-----------------------------|--20pbr-18-20---------------------|
G|-----------------------------|----------------------------------|
D|-----------------------------|----------------------------------|
A|-----------------------------|----------------------------------|
E|-----------------------------|----------------------------------|


       TH    TH        TH       TH    TH          TH                          
       E     Q         Q        E     Q           H          E     S  S Q     
e|--<>10~-----------<>12~--------------------|-------------------------------|
B|---------------------------<>13~-----------|-------------------------------|
G|---------<>9b~--------------------<>9b~----|--<>7--------------------------|
D|-------------------------------------------|-------------7g9pbr--7p-5-0----|
A|-------------------------------------------|-------------------------------|
E|-------------------------------------------|-------------------------------|


      +12 frets                                                                   
      TH        TH   TH   TH        TH   TH            TH    TH     TH   TH   TH  
      E         E    E    Q    E    E    E     E  E    E     Q      E    E    E   
e|------------------------------------------|------------------------------------|
B|-----------------<>5--<>6-----------------|------------------------------------|
G|------------------------------------------|-----x--<>7b--<>5-------------------|
D|------------<>7-----------------<>7--<>5--|--L------------------<>0--<>5--<>3--|
A|--<>5-------------------------------------|------------------------------------|
E|------------------------------------------|------------------------------------|


            TH    TH        TH   TH                      
    E  E    E     Q    E    E    E     W                 
e|----------------------------------|-------------------|
B|----------------------------------|-------------------|
G|----------------------------------|-------------------|
D|--L--x--<>7b--<>5-------<>3--<>0--|--L----------------|
A|----------------------------------|-------------------|
E|----------------------------------|-------------------|


      +12 frets                                                                   
      TH        TH   TH   TH        TH   TH            TH    TH     TH   TH   TH  
      E         E    E    Q    E    E    E     E  E    E     Q      E    E    E   
e|------------------------------------------|------------------------------------|
B|-----------------<>5--<>6-----------------|------------------------------------|
G|------------------------------------------|-----x--<>7b--<>5-------------------|
D|------------<>7-----------------<>7--<>5--|--L------------------<>0--<>5--<>3--|
A|--<>5-------------------------------------|------------------------------------|
E|------------------------------------------|------------------------------------|


            TH    TH        TH    TH                      
    E  E    E     Q    E    E     E     W                 
e|-----------------------------------|-------------------|
B|------------------------------<>3--|--L----------------|
G|------------------------<>5b-------|-------------------|
D|--L--x--<>7b--<>5------------------|-------------------|
A|-----------------------------------|-------------------|
E|-----------------------------------|-------------------|


    E  S S S S E  Q    E  S S    E  S S S S E  Q    E  S S  
e|----------------------------|----------------------------|
B|----------------------------|----------------------------|
G|----------------------------|----------------------------|
D|--3----------3--L-------x-x-|--3----------5--L-------x-x-|
A|--3--x-x-x-x-1--L-------x-x-|--3--x-x-x-x-3--L-------x-x-|
E|--1--x-x-x-x----------------|--1--x-x-x-x----------------|


    E  S S S S E  Q    E  S S    E  S S S S E  H         
e|----------------------------|-------------------------|
B|----------------------------|-------------------------|
G|----------------------------|-------------------------|
D|--6----------6--L-------x-x-|--6----------8--L--------|
A|--6--x-x-x-x-4--L-------x-x-|--6--x-x-x-x-6--L--------|
E|--4--x-x-x-x----------------|--4--x-x-x-x-------------|


    E  S S S S E  Q    E  S S    E  S S S S E  Q    E  S S  
e|----------------------------|----------------------------|
B|----------------------------|----------------------------|
G|----------------------------|----------------------------|
D|--3----------3--L-------x-x-|--3----------5--L-------x-x-|
A|--3--x-x-x-x-1--L-------x-x-|--3--x-x-x-x-3--L-------x-x-|
E|--1--x-x-x-x----------------|--1--x-x-x-x----------------|


    E  S S S S E  Q    E  S S    E  S S S S E  H         
e|----------------------------|-------------------------|
B|----------------------------|-------------------------|
G|----------------------------|-------------------------|
D|--6----------6--L-------x-x-|--6----------8--L--------|
A|--6--x-x-x-x-4--L-------x-x-|--6--x-x-x-x-6--L--------|
E|--4--x-x-x-x----------------|--4--x-x-x-x-------------|


    E  S S S S E  Q    E  S S    E  S S S S E  Q    E  S S  
e|----------------------------|----------------------------|
B|----------------------------|----------------------------|
G|----------------------------|----------------------------|
D|--3----------3--L-------x-x-|--3----------5--L-------x-x-|
A|--3--x-x-x-x-1--L-------x-x-|--3--x-x-x-x-3--L-------x-x-|
E|--1--x-x-x-x----------------|--1--x-x-x-x----------------|


    E  S S S S E  Q    E  S S    E  S S S S E  H         
e|----------------------------|-------------------------|
B|----------------------------|-------------------------|
G|----------------------------|-------------------------|
D|--6----------6--L-------x-x-|--6----------8--L--------|
A|--6--x-x-x-x-4--L-------x-x-|--6--x-x-x-x-6--L--------|
E|--4--x-x-x-x----------------|--4--x-x-x-x-------------|


    E  S S S S E  Q    E  S S    E  S S S S E  Q    E  S S  
e|----------------------------|----------------------------|
B|----------------------------|----------------------------|
G|----------------------------|----------------------------|
D|--3----------3--L-------x-x-|--3----------5--L-------x-x-|
A|--3--x-x-x-x-1--L-------x-x-|--3--x-x-x-x-3--L-------x-x-|
E|--1--x-x-x-x----------------|--1--x-x-x-x----------------|


    E  S S S S E  Q    E  S S    E  S S S S E  H         
e|----------------------------|-------------------------|
B|----------------------------|-------------------------|
G|----------------------------|-------------------------|
D|--6----------6--L-------x-x-|--6----------8--L--------|
A|--6--x-x-x-x-4--L-------x-x-|--6--x-x-x-x-6--L--------|
E|--4--x-x-x-x----------------|--4--x-x-x-x-------------|


    E   E  E   Q    E   E  E     E  E   E   Q    E  E  E   
e|----------------------------|---------------------------|
B|---------9--10--------------|---------------------------|
G|----------------------------|-----x--11b--9-------------|
D|-----11--------------11--9--|--L------------------9--7--|
A|--9-------------------------|---------------------------|
E|----------------------------|---------------------------|


    E  E     E  Q    E  S  S E     W                   E   E  E   Q    E   E  E   
e|------------------------------|-------------------|----------------------------|
B|------------------------------|-------------------|---------9--10--------------|
G|------------------------------|-------------------|----------------------------|
D|--L--x--9g11--9-------9p-7----|-------------------|-----11--------------11--9--|
A|---------------------------9--|--L----------------|--9-------------------------|
E|------------------------------|-------------------|----------------------------|


    E  E   E   Q    E  E  E     E  E     E  Q    E  E   E     W                 
e|---------------------------|-----------------------------|-------------------|
B|---------------------------|--------------------------7--|--L----------------|
G|-----x--11b--9-------------|----------------------9b-----|-------------------|
D|--L------------------9--7--|--L--x--9g11--9--------------|-------------------|
A|---------------------------|-----------------------------|-------------------|
E|---------------------------|-----------------------------|-------------------|


    E  E  E  Q    E  E  E     E  E  E   Q    E  E  E   
e|-------------------------|--------------------------|
B|--------2--3-------------|--------------------------|
G|-------------------------|-----x--4b--2-------------|
D|-----4-------------4--2--|--L-----------------2--0--|
A|--2----------------------|--------------------------|
E|-------------------------|--------------------------|


    E  E    E  Q    E  E  E      W                 
e|----------------------------|-------------------|
B|----------------------------|-------------------|
G|----------------------------|-------------------|
D|--L--x--2g4--2-------0------|-------------------|
A|------------------------2~--|--L----------------|
E|----------------------------|-------------------|


     E   E   E   Q    E   E   E     E  E   E    Q    E   E   E   
e|-------------------------------|------------------------------|
B|----------14--15---------------|------------------------------|
G|-------------------------------|-----x--16b--14---------------|
D|------16---------------16--14--|--L-------------------14--12--|
A|--14---------------------------|------------------------------|
E|-------------------------------|------------------------------|


     E  E      E   Q     Q      E      Q    H.             
e|---------------------------------|----------------------|
B|---------------------------------|----------------------|
G|----------------------16b----14--|--16------------------|
D|---L--x--14g16--14---------------|----------------------|
A|---------------------------------|--------7~------------|
E|---------------------------------|----------------------|


     E   E   E   Q     E   E   E     Q     S   S  Q.      S  S  E    
e|----------14--15--------15--14--|--L----12h-14--------------------|
B|------12------------12----------|--------------15------12-15-15b--|
G|--------------------------------|---------------------------------|
D|--14----------------------------|---------------------------------|
A|--------------------------------|---------------------------------|
E|--------------------------------|---------------------------------|


    Q    S  S  S  S  E    S  S  S  S  S  S  
e|---------12------------------------------|
B|--L----L----15-12---------------12-12-12-|
G|------------------14b--12-14-14----------|
D|-----------------------------------------|
A|-----------------------------------------|
E|-----------------------------------------|


     Q.      T  T  T  T  T  T  T  T  T  T  T  T  Q      
e|-------------------------------------12-14-15-15b----|
B|----------------------------12-13-15-----------------|
G|----------------------12-14--------------------------|
D|--14---------12-14-15--------------------------------|
A|----------14-----------------------------------------|
E|-----------------------------------------------------|


     S   S  S  S  S   S  Q     E   E   E      Q     H          S   S  E   
e|--15p-12----12------------------12--14--|------------------------------|
B|---------15----15p-12-13----15----------|------------------------------|
G|----------------------------------------|--14----14br--------9h-11p-9--|
D|----------------------------------------|------------------------------|
A|----------------------------------------|------------------------------|
E|----------------------------------------|------------------------------|


    Q    H         S  S E     W                    E   E   E   Q    E   E   E   
e|-------------------------|-------------------|-------------------------------|
B|-------------------------|-------------------|----------12--13---------------|
G|--L----9b--------9p-7-9--|--L----------------|-------------------------------|
D|-------------------------|-------------------|------14---------------14--12--|
A|-------------------------|-------------------|--12---------------------------|
E|-------------------------|-------------------|-------------------------------|


    E  E   E    Q    E   E   E     E  E      E   Q    E   E   E   
e|------------------------------|--------------------------------|
B|------------------------------|--------------------------------|
G|-----x--14b--12---------------|--------------------------------|
D|--L-------------------12--10--|--L--x--12g14--12-------10------|
A|------------------------------|----------------------------12--|
E|------------------------------|--------------------------------|


    Q    S  T T  T  T T  T  T T  T  T  T  T  T  T  E.  S  
e|-------------------------------------------------------|
B|------------------------------------10-12-13-14S-L---0-|
G|----------------------------9-10-12-----------x--------|
D|--------------------9-10-12----------------------------|
A|--L----L----8-10-12------------------------------------|
E|---------12--------------------------------------------|


     E   E   E   Q    E   E   E     E  E   E    Q    E   E   E   
e|-------------------------------|------------------------------|
B|----------12--13---------------|------------------------------|
G|-------------------------------|-----x--14b--12---------------|
D|------14---------------14--12--|--L-------------------12--10--|
A|--12---------------------------|------------------------------|
E|-------------------------------|------------------------------|


    E  E      E   Q    E   E   E      W                 
e|---------------------------------|-------------------|
B|---------------------------------|-------------------|
G|---------------------------------|-------------------|
D|--L--x--12g14--12-----------14~--|--L----------------|
A|------------------------14--12~--|--L----------------|
E|---------------------------------|-------------------|


      +12 frets                                                                   
      TH        TH   TH   TH        TH   TH            TH    TH     TH   TH   TH  
      E         E    E    Q    E    E    E     E  E    E     Q      E    E    E   
e|------------------------------------------|------------------------------------|
B|-----------------<>5--<>6-----------------|------------------------------------|
G|------------------------------------------|-----x--<>7b--<>5-------------------|
D|------------<>7-----------------<>7--<>5--|--L------------------<>0--<>5--<>3--|
A|--<>5-------------------------------------|------------------------------------|
E|------------------------------------------|------------------------------------|


            TH    TH        TH   TH                      
    E  E    E     Q    E    E    E     W                 
e|----------------------------------|-------------------|
B|----------------------------------|-------------------|
G|----------------------------------|-------------------|
D|--L--x--<>7b--<>5-------<>3--<>0--|--L----------------|
A|----------------------------------|-------------------|
E|----------------------------------|-------------------|


      TH   TH   TH   TH        TH   TH            TH    TH     TH   TH   TH  
      E    E    E    Q    E    E    E     E  E    E     Q      E    E    E   
e|-------------------------------------|------------------------------------|
B|------------<>5--<>6-----------------|------------------------------------|
G|-------------------------------------|-----x--<>7b--<>5-------------------|
D|-------<>7-----------------<>7--<>5--|--L------------------<>0--<>5--<>3--|
A|--<>5--------------------------------|------------------------------------|
E|-------------------------------------|------------------------------------|


            TH    TH        TH    TH                       
    E  E    E     Q    E    E     E     W                  
e|-----------------------------------|-------------------||
B|------------------------------<>3--|--L----------------||
G|------------------------<>5b-------|-------------------||
D|--L--x--<>7b--<>5------------------|-------------------||
A|-----------------------------------|-------------------||
E|-----------------------------------|-------------------||

 

************************************

| x    Dead note
| g    Grace note
| h    Hammer-on
| p    Pull-off
| b    Bend
| br   Bend release
| pbr  Pre-bend release
| /    Slide up
| ~    Vibrato 

************************************

            
            
Suggest correction
Creating personal tab
Creating personal tab
You can edit any tab online and save it as your Personal.

You can edit, replace or remove any tab part or add personal notes – all changes will be seen only by you.

Personal tabs can be accessed anytime from any device, even offline.
Learn more »
Give kudos to tab author, rate the tab!
1 2 3 4 5
comments
print report bad tab
1 comment total.
0 reply
waltervt 143 Apr 29, 2017 09:52 AM

This is the best tab available, complete and awell tabbed. Although I think that the outro is done all with harmonics, not just the pat that repeats the intro, but most of it. Good job.

guest
Wanna post a correction for this tab? Suggest correction