Oops, an error
Loading. Please wait.

Ted The Mechanic bass

version 1
version 1

Whole song

Interactive

1,297 views 1 this week
no commentswrite comment
1 2 3 4 5
3 more votes to show rating
add to favorites
×
Save as Personal and add changes to this tab that will be seen only by you. Learn more ›
×
You can save this tab as Personal to edit and correct it or add notes. All changes will be seen only by you. Learn more »
launch autoscroll
font size
0
reset
guitar tuner
backing track
0:00
0:00
edit
Autoscroll
slow
fast
+/-
esc
set tempo
stop
     W                   W                   W                 
G||-------------------|-------------------|-------------------|
D||-------------------|-------------------|-------------------|
A||-------------------|-------------------|-------------------|
E||-------------------|-------------------|-------------------|


  H.           E  S S    E  E  E  E  E  E  S E  S    S S E  E  E  E  E  S E  S  
----------------------|---------------------------|----------------------------|
----------------------|---------------------------|----------------------------|
----------------------|-----------------0---------|------------------0---------|
--------------------0-|--L--3--0--3--0-----0-3--0-|--L-0-3--0--3--0-----0-3--0-|


  E  E  E  E  E  E  S E  S    S S E  E  E  E  E  S E  S  
---------------------------|----------------------------|
---------------------------|----------------------------|
-----------------0---------|------------------0---------|
--L--3--0--3--0-----0-3--0-|--L-0-3--0--3--0-----0-3--0-|


  E  E  E  E  E  E  S E  S    S S E  E  E  E  E  S E  S  
---------------------------|----------------------------|
---------------------------|----------------------------|
-----------------0---------|------------------0---------|
--L--3--0--3--0-----0-3--0-|--L-0-3--0--3--0-----0-3--0-|


  E  E  E  E  E  E  S E  S    S S E  E  E  S E  E  E.   
---------------------------|---------------------------|
---------------------------|---------------------------|
-----------------0---------|-----------------0--1--2---|
--L--3--0--3--0-----0-3--0-|--L-0-3--0--3--0-----------|


  E  E  E  E  E  E  S E  S    S S E  E  E  E  E  S E  S  
---------------------------|----------------------------|
---------------------------|----------------------------|
-----------------0---------|------------------0---------|
--0--3--0--3--0-----0-3--0-|--L-0-3--0--3--0-----0-3--0-|


  E  E  E  E  E  E  S E  S    S S E  E  E  S E  E  E.   
---------------------------|---------------------------|
---------------------------|---------------------------|
-----------------0---------|--------------------0--1---|
--L--3--0--3--0-----0-3--0-|--L-0-3--0--3--0-4---------|


  E  E  Q    S E  Q    S    E  E  Q    S E  Q    S    E  E  Q    S E  Q    S  
-------------------------|-------------------------|-------------------------|
------------------2----L-|---------------0---------|------------------2----L-|
--2------------0---------|--2---------------0----L-|--2------------0---------|
-------------------------|-------------------------|-------------------------|


  E  E  Q    S E  E  E  S    E  E  E  E  E  E  S E  S  
--------------------------|---------------------------|
---------------0----------|---------------------------|
--2---------------0-------|-----------------0---------|
---------------------3--0-|--L--3--0--3--0-----0-3--0-|


  S S E  E  E  E  E  S E  S    E  E  E  E  E  E  S E  S  
----------------------------|---------------------------|
----------------------------|---------------------------|
------------------0---------|-----------------0---------|
--L-0-3--0--3--0-----0-3--0-|--L--3--0--3--0-----0-3--0-|


  S S E  E  E  E  E  S E  S    E  E  E  E  E  E  S E  S  
----------------------------|---------------------------|
----------------------------|---------------------------|
------------------0---------|-----------------0---------|
--L-0-3--0--3--0-----0-3--0-|--L--3--0--3--0-----0-3--0-|


  S S E  E  E  E  E  S E  S    E  E  E  E  E  E  S E  S  
----------------------------|---------------------------|
----------------------------|---------------------------|
------------------0---------|-----------------0---------|
--L-0-3--0--3--0-----0-3--0-|--L--3--0--3--0-----0-3--0-|


  S S E  E  E  S E  E  E.     E  E  E  E  E  E  S E  S  
---------------------------|---------------------------|
---------------------------|---------------------------|
-----------------0--1--2---|-----------------0---------|
--L-0-3--0--3--0-----------|--0--3--0--3--0-----0-3--0-|


  S S E  E  E  E  E  S E  S    E  E  E  E  E  E  S E  S  
----------------------------|---------------------------|
----------------------------|---------------------------|
------------------0---------|-----------------0---------|
--L-0-3--0--3--0-----0-3--0-|--L--3--0--3--0-----0-3--0-|


  S S E  E  E  S E  E  E.     E  E  Q    S E  Q    S    E  E  Q    S E  Q    S  
---------------------------|-------------------------|-------------------------|
---------------------------|------------------2----L-|---------------0---------|
--------------------0--1---|--2------------0---------|--2---------------0----L-|
--L-0-3--0--3--0-4---------|-------------------------|-------------------------|


  E  E  Q    S E  Q    S    E  E  Q    S E  E  E  S  
-------------------------|--------------------------|
------------------2----L-|---------------0----------|
--2------------0---------|--2---------------0-------|
-------------------------|---------------------3--0-|


  E  E  E  E  E  E  S E  S    S S E  E  E  E  E  S E  S  
---------------------------|----------------------------|
---------------------------|----------------------------|
-----------------0---------|------------------0---------|
--L--3--0--3--0-----0-3--0-|--L-0-3--0--3--0-----0-3--0-|


  E  E  E  E  E  E  S E  S    S S E  E  E  E  E  S S E   
---------------------------|----------------------------|
---------------------------|----------------------------|
-----------------0---------|----------------------------|
--L--3--0--3--0-----0-3--0-|--L-0-3--0--3--0--5--0-3----|


  E  E  E  E  E  E  E  S S    E  E  E  E  E  E  E  S S  
---------------------------|---------------------------|
---------------------------|---------------------------|
--5--5--5--5--5--5--5--2-3-|--L--3--3--3--3--3--3--3-5-|
---------------------------|---------------------------|


  E  E  E  E  E  E  E  S S    E  E  E  E  E  E  E  S S  
---------------------------|---------------------------|
---------------------------|-------------------------0-|
--L--5--5--5--5--5--5--2-3-|--L--3--3--3--3--0---------|
---------------------------|--------------------3--1---|


  E  E  E  E  E  E  E  E     E  E  E  E  H           Q    Q    Q    Q     
--------------------------|-----------------------|-------2---------2----|
--L-----------------------|-----------------------|----------------------|
-----5--5--5--5--5--5--5--|--3--------------------|--0---------0---------|
--------------------------|-----0--1--2--3--------|----------------------|


  S E.  S E.  S E.  S E  S    E  E  E  E  E  E  S E  S  
---------------------------|---------------------------|
---------------------------|---------------------------|
--2-2---2-2---2-2---2-2----|-----------------0---------|
-------------------------0-|--L--3--0--3--0-----0-3--0-|


  S S E  E  E  E  E  S E  S    E  E  E  E  E  E  S E  S  
----------------------------|---------------------------|
----------------------------|---------------------------|
------------------0---------|-----------------0---------|
--L-0-3--0--3--0-----0-3--0-|--L--3--0--3--0-----0-3--0-|


  S S E  E  E  E  E  S E  S    E  E  E  E  E  E  S E  S  
----------------------------|---------------------------|
----------------------------|---------------------------|
------------------0---------|-----------------0---------|
--L-0-3--0--3--0-----0-3--0-|--L--3--0--3--0-----0-3--0-|


  S S E  E  E  E  E  S E  S    E  E  E  E  E  E  S E  S  
----------------------------|---------------------------|
----------------------------|---------------------------|
------------------0---------|-----------------0---------|
--L-0-3--0--3--0-----0-3--0-|--L--3--0--3--0-----0-3--0-|


  S S E  E  E  E  E  S E  S    E  E  E  E  E  E  S E  S  
----------------------------|---------------------------|
----------------------------|---------------------------|
------------------0---------|-----------------0---------|
--L-0-3--0--3--0-----0-3--0-|--L--3--0--3--0-----0-3--0-|


  S S E  E  E  E  E  S E  S    E  E  E  E  E  E  S E  S  
----------------------------|---------------------------|
----------------------------|---------------------------|
------------------0---------|-----------------0---------|
--L-0-3--0--3--0-----0-3--0-|--L--3--0--3--0-----0-3--0-|


  S S E  E  E  E  E  S E  S    E  E  E  E  E  E  S E  S  
----------------------------|---------------------------|
----------------------------|---------------------------|
------------------0---------|-----------------0---------|
--L-0-3--0--3--0-----0-3--0-|--L--3--0--3--0-----0-3--0-|


  S S E  E  E  E  E  S E  S    E  E  E  E  E  E  S E  S  
----------------------------|---------------------------|
----------------------------|---------------------------|
------------------0---------|-----------------0---------|
--L-0-3--0--3--0-----0-3--0-|--L--3--0--3--0-----0-3--0-|


  S S E  E  E  E  E  S E  S    E  E  E  E  E  E  S E  S  
----------------------------|---------------------------|
----------------------------|---------------------------|
------------------0---------|-----------------0---------|
--L-0-3--0--3--0-----0-3--0-|--L--3--0--3--0-----0-3--0-|


  S S E  E  E  E  E  S E  S    E  E  E  E  E  E  S E  S  
----------------------------|---------------------------|
----------------------------|---------------------------|
------------------0---------|-----------------0---------|
--L-0-3--0--3--0-----0-3--0-|--L--3--0--3--0-----0-3--0-|


  S S E  E  E  E  E  S E  S    E  E  E  E  E  E  S E  S  
----------------------------|---------------------------|
----------------------------|---------------------------|
------------------0---------|-----------------0---------|
--L-0-3--0--3--0-----0-3--0-|--L--3--0--3--0-----0-3--0-|


  S S E  E  E  E  E  S E  S    E  E  E  E  E  E  S E  S  
----------------------------|---------------------------|
----------------------------|---------------------------|
------------------0---------|-----------------0---------|
--L-0-3--0--3--0-----0-3--0-|--L--3--0--3--0-----0-3--0-|


  S S E  E  E  S E  E  E.     E  E  E  E  E  E  S E  S  
---------------------------|---------------------------|
---------------------------|---------------------------|
-----------------0--1--2---|-----------------0---------|
--L-0-3--0--3--0-----------|--0--3--0--3--0-----0-3--0-|


  S S E  E  E  E  E  S E  S    E  E  E  E  E  E  S E  S  
----------------------------|---------------------------|
----------------------------|---------------------------|
------------------0---------|-----------------0---------|
--L-0-3--0--3--0-----0-3--0-|--L--3--0--3--0-----0-3--0-|


  S S E  E  E  S E  E  E.     E  E  Q    S E  Q    S    E  E  Q    S E  Q    S  
---------------------------|-------------------------|-------------------------|
---------------------------|------------------2----L-|---------------0---------|
--------------------0--1---|--2------------0---------|--2---------------0----L-|
--L-0-3--0--3--0-4---------|-------------------------|-------------------------|


  E  E  Q    S E  Q    S    E  E  Q    S E  E  E  S  
-------------------------|--------------------------|
------------------2----L-|---------------0----------|
--2------------0---------|--2---------------0-------|
-------------------------|---------------------3--0-|


  E  E  E  E  E  E  S E  S    S S E  E  E  E  E  S E  S  
---------------------------|----------------------------|
---------------------------|----------------------------|
-----------------0---------|------------------0---------|
--L--3--0--3--0-----0-3--0-|--L-0-3--0--3--0-----0-3--0-|


  E  E  E  E  E  E  S E  S    S S E  E  E  E  E  S E  S  
---------------------------|----------------------------|
---------------------------|----------------------------|
-----------------0---------|------------------0---------|
--L--3--0--3--0-----0-3--0-|--L-0-3--0--3--0-----0-3--0-|


  E  E  E  E  E  E  S E  S    S S E  E  E  E  E  S E  S  
---------------------------|----------------------------|
---------------------------|----------------------------|
-----------------0---------|------------------0---------|
--L--3--0--3--0-----0-3--0-|--L-0-3--0--3--0-----0-3--0-|


  E  E  E  E  E  E  S E  S    S S E  E  E  S E  E  E.   
---------------------------|---------------------------|
---------------------------|---------------------------|
-----------------0---------|-----------------0--1--2---|
--L--3--0--3--0-----0-3--0-|--L-0-3--0--3--0-----------|


  E  E  E  E  E  E  S E  S    S S E  E  E  E  E  S E  S  
---------------------------|----------------------------|
---------------------------|----------------------------|
-----------------0---------|------------------0---------|
--0--3--0--3--0-----0-3--0-|--L-0-3--0--3--0-----0-3--0-|


  E  E  E  E  E  E  S E  S    S S E  E  E  S E  E  E.   
---------------------------|---------------------------|
---------------------------|---------------------------|
-----------------0---------|--------------------0--1---|
--L--3--0--3--0-----0-3--0-|--L-0-3--0--3--0-4---------|


  E  E  Q    S E  Q    S    E  E  Q    S E  Q    S    E  E  Q    S E  Q    S  
-------------------------|-------------------------|-------------------------|
------------------2----L-|---------------0---------|------------------2----L-|
--2------------0---------|--2---------------0----L-|--2------------0---------|
-------------------------|-------------------------|-------------------------|


  E  E  Q    S E  E  E  S    E  E  E  E  E  E  S E  S  
--------------------------|---------------------------|
---------------0----------|---------------------------|
--2---------------0-------|-----------------0---------|
---------------------3--0-|--L--3--0--3--0-----0-3--0-|


  S S E  E  E  E  E  S E  S    E  E  E  E  E  E  S E  S  
----------------------------|---------------------------|
----------------------------|---------------------------|
------------------0---------|-----------------0---------|
--L-0-3--0--3--0-----0-3--0-|--L--3--0--3--0-----0-3--0-|


  S S E  E  E  E  E  S E  S    E  E  E  E  E  E  S E  S  
----------------------------|---------------------------|
----------------------------|---------------------------|
------------------0---------|-----------------0---------|
--L-0-3--0--3--0-----0-3--0-|--L--3--0--3--0-----0-3--0-|


  S S E  E  E  E  E  S E  S    E  E  E  E  E  E  S E  S  
----------------------------|---------------------------|
----------------------------|---------------------------|
------------------0---------|-----------------0---------|
--L-0-3--0--3--0-----0-3--0-|--L--3--0--3--0-----0-3--0-|


  S S E  E  E  E  E  S S E     E  E  E  E  E  E  E  S S  
----------------------------|---------------------------|
----------------------------|---------------------------|
----------------------------|--5--5--5--5--5--5--5--2-3-|
--L-0-3--0--3--0--5--0-3----|---------------------------|


  E  E  E  E  E  E  E  S S    E  E  E  E  E  E  E  S S  
---------------------------|---------------------------|
---------------------------|---------------------------|
--L--3--3--3--3--3--3--3-5-|--L--5--5--5--5--5--5--2-3-|
---------------------------|---------------------------|


  E  E  E  E  E  E  E  S S    E  E  E  E  E  E  E  E     E  E  E  E  H         
---------------------------|--------------------------|-----------------------|
-------------------------0-|--L-----------------------|-----------------------|
--L--3--3--3--3--0---------|-----5--5--5--5--5--5--5--|--3--------------------|
--------------------3--1---|--------------------------|-----0--1--2--3--------|


  Q    Q    Q    Q       S E.  S E.  S E.  S E.     S E.  S E.  S E  E  E  S  
-------2---------2----|--------------------------|---------------------------|
----------------------|--------------------------|---------------------------|
--0---------0---------|--2-2---2-2---2-2---2-2---|--2-2---2-2---2-5----------|
----------------------|--------------------------|-------------------5--3--0-|


  Q    H.             
--------------------||
--------------------||
--------------------||
--L-----------------||




Duration Legend
---------------
W - whole
H - half
Q - quarter
E - 8th
S - 16th
T - 32nd
X - 64th
. - note dotted
|-n-|  - n-tuplets


Tablature Legend
----------------
L - tied note
x - dead note
g - grace note
(n) - ghost note
> - accentuded note
NH - natural harmonic
AH - artificial harmonic
TH - tapped harmonic
SH - semi harmonic
PH - pitch harmonic
h - hammer on
p - pull off
b - bend
br - bendRelease
pb - preBend
pbr - preBendRelease
brb - bendReleaseBend
\n/ - tremolo bar dip
\n - tremolo bar dive
-/n - tremolo bar Release up
/n\ - tremolo bar inverted dip
/n - tremolo bar return
-\n - tremolo bar Release down
S - shift slide
s - legato slide
/ -  slide into from below or out of upwards
\ -  slide into from above or out of downwards
~ - vibrato
W - wide vibrato
tr - trill
TP - tremolo picking
T - tapping
S - slap
P - pop
< - fade in
^ - brush up
v - brush down

            
            
Suggest correction
Creating personal tab
Creating personal tab
You can edit any tab online and save it as your Personal.

You can edit, replace or remove any tab part or add personal notes – all changes will be seen only by you.

Personal tabs can be accessed anytime from any device, even offline.
Learn more »
Give kudos to tab author, rate the tab!
1 2 3 4 5
comments
print report bad tab
guest
Wanna post a correction for this tab? Suggest correction