Oops, an error
Loading. Please wait.

Ted The Mechanic tab

version 2
version 2

Whole song

Interactive

5,936 views 24 this week
no commentswrite comment
1 2 3 4 5
2 more votes to show rating
add to favorites
×
Save as Personal and add changes to this tab that will be seen only by you. Learn more ›
×
You can save this tab as Personal to edit and correct it or add notes. All changes will be seen only by you. Learn more »
launch autoscroll
font size
0
reset
how to read this tab
guitar tuner
backing track
0:00
0:00
edit
Autoscroll
slow
fast
+/-
esc
set tempo
stop
     E           E  E  S S E  E  E  S S    E  E  E  S S E  E  S S S S  
E||-------------------------------------|-----------------------------|
B||-------------------------------------|-----------------------------|
G||-------------------------------------|-----------------------------|
D||--------------2-----2-1-0--2-----2-2-|-----2-----2-1-0-------------|
A||-------------------------------------|------------------2--0-2-0-2-|
E||--0--------------0------------0------|--0-----0--------------------|


  E  E  E  S S E  E  E  S S    S S E  E  E  E  E  E  S S  
----------------------------|----------------------------|
----------------------------|----------------------------|
----------------------------|----------------------------|
-----2-----2-1-0--2-----2-2-|--2-2-1--0----------------2-|
----------------------------|------------4--3--2-------2-|
--0-----0------------0------|---------------------5--3-0-|


  E  E  E  E  E  E  S E  S    S S E  E  E  E  E  S E  S  
---------------------------|----------------------------|
---------------------------|----------------------------|
---------------------------|----------------------------|
--L--5-----5-----7----5--2-|--L---5-----5-----7----5--2-|
--L--5-----5-----7----5--2-|--L---5-----5-----7----5--2-|
--L--3--0--3--0--5--0-3--0-|--L-0-3--0--3--0--5--0-3--0-|


                                                        NH 
  E  E  E  E  E  E  S E  S    S S E  E  E  E  E  S E    S  
---------------------------|------------------------------|
---------------------------|------------------------------|
---------------------------|--------------------------<>5-|
--L--5-----5-----7----5--2-|--L---5-----5-----7----5------|
--L--5-----5-----7----5--2-|--L---5-----5-----7----5------|
--L--3--0--3--0--5--0-3--0-|--L-0-3--0--3--0--5--0-3------|


                           NH                              NH 
  E  E  E  E  E  E  S E    S     S S E  E  E  E  E  S E    S  
------------------------------|------------------------------|
-------------------------<>5~-|--L-L-------------------------|
--L---------------------------|--------------------------<>5-|
-----5-----5-----7----5-------|------5-----5-----7----5------|
-----5-----5-----7----5-------|------5-----5-----7----5------|
-----3--0--3--0--5--0-3-------|----0-3--0--3--0--5--0-3------|


                           NH                              
  E  E  E  E  E  E  S E    S     S S E  E  E  S E  E  E.   
------------------------------|---------------------------|
-------------------------<>5~-|--L-L----------------------|
--L---------------------------|-----------------2--3--4---|
-----5-----5-----7----5-------|------5-----5----2--3--4---|
-----5-----5-----7----5-------|------5-----5----0--1--2---|
-----3--0--3--0--5--0-3-------|----0-3--0--3--0-----------|


                           NH                              NH 
  E  E  E  E  E  E  S E    S     S S E  E  E  E  E  S E    S  
------------------------------|------------------------------|
-------------------------<>5~-|--L-L-------------------------|
------------------------------|--------------------------<>5-|
--2--5-----5-----7----5-------|------5-----5-----7----5------|
--2--5-----5-----7----5-------|------5-----5-----7----5------|
--0--3--0--3--0--5--0-3-------|----0-3--0--3--0--5--0-3------|


                           NH                              
  E  E  E  E  E  E  S E    S     S S E  E  E  S E  E  E.   
------------------------------|---------------------------|
-------------------------<>5~-|--L-L----------------------|
--L---------------------------|--------------------2--3---|
-----5-----5-----7----5-------|------5-----5----6--2--3---|
-----5-----5-----7----5-------|------5-----5----6--0--1---|
-----3--0--3--0--5--0-3-------|----0-3--0--3--0-4---------|


  E  E  E   S E   E  Q     S    E  E  E   S E    E   Q     S  
-----------------------------|-------------------------------|
-----------------10--9~----L-|------------------10--10~----L-|
--------7~--------9--9~----L-|--------7~----9b--11---9~----L-|
--7--9------9-7--------------|--7--9------9------------------|
-----------------------------|-------------------------------|
-----------------------------|-------------------------------|


  E  E  E   S E   E  Q     S    E  E  E   S E   E  E  E  S  
-----------------------------|-----------------------------|
-----------------10--9~----L-|-----------------------------|
--------7~--------9--9~----L-|--------7~----9b--7----------|
--7--9------9-7--------------|--7--9------9--------7--5--2-|
-----------------------------|---------------------------2-|
-----------------------------|---------------------------0-|


  E  E  E  E  E  E  S E  S    S S E  E  E  E  E  S E  S  
---------------------------|----------------------------|
---------------------------|----------------------------|
---------------------------|----------------------------|
--L--5-----5-----7----5--2-|--L---5-----5-----7----5--2-|
--L--5-----5-----7----5--2-|--L---5-----5-----7----5--2-|
--L--3--0--3--0--5--0-3--0-|--L-0-3--0--3--0--5--0-3--0-|


                                                        NH 
  E  E  E  E  E  E  S E  S    S S E  E  E  E  E  S E    S  
---------------------------|------------------------------|
---------------------------|------------------------------|
---------------------------|--------------------------<>5-|
--L--5-----5-----7----5--2-|--L---5-----5-----7----5------|
--L--5-----5-----7----5--2-|--L---5-----5-----7----5------|
-----3--0--3--0--5--0-3--0-|--L-0-3--0--3--0--5--0-3------|


                           NH                              NH 
  E  E  E  E  E  E  S E    S     S S E  E  E  E  E  S E    S  
------------------------------|------------------------------|
-------------------------<>5~-|--L-L-------------------------|
--L---------------------------|--------------------------<>5-|
-----5-----5-----7----5-------|------5-----5-----7----5------|
-----5-----5-----7----5-------|------5-----5-----7----5------|
-----3--0--3--0--5--0-3-------|----0-3--0--3--0--5--0-3------|


                           NH                              
  E  E  E  E  E  E  S E    S     S S E  E  E  S E  E  E.   
------------------------------|---------------------------|
-------------------------<>5~-|--L-L----------------------|
--L---------------------------|-----------------2--3--4---|
-----5-----5-----7----5-------|------5-----5----2--3--4---|
-----5-----5-----7----5-------|------5-----5----0--1--2---|
-----3--0--3--0--5--0-3-------|----0-3--0--3--0-----------|


                           NH                              NH 
  E  E  E  E  E  E  S E    S     S S E  E  E  E  E  S E    S  
------------------------------|------------------------------|
-------------------------<>5~-|--L-L-------------------------|
------------------------------|--------------------------<>5-|
--2--5-----5-----7----5-------|------5-----5-----7----5------|
--2--5-----5-----7----5-------|------5-----5-----7----5------|
--0--3--0--3--0--5--0-3-------|----0-3--0--3--0--5--0-3------|


                           NH                              
  E  E  E  E  E  E  S E    S     S S E  E  E  S E  E  E.   
------------------------------|---------------------------|
-------------------------<>5~-|--L-L----------------------|
--L---------------------------|--------------------2--3---|
-----5-----5-----7----5-------|------5-----5----6--2--3---|
-----5-----5-----7----5-------|------5-----5----6--0--1---|
-----3--0--3--0--5--0-3-------|----0-3--0--3--0-4---------|


  E  E  E   S E   E  Q     S    E  E  E   S E    E   Q     S  
-----------------------------|-------------------------------|
-----------------10--9~----L-|------------------10--10~----L-|
--------7~--------9--9~----L-|--------7~----9b--11---9~----L-|
--7--9------9-7--------------|--7--9------9------------------|
-----------------------------|-------------------------------|
-----------------------------|-------------------------------|


  E  E  E   S E   E  Q     S    E  E  E   S E   E  E  E  S  
-----------------------------|-----------------------------|
-----------------10--9~----L-|-----------------------------|
--------7~--------9--9~----L-|--------7~----9b--7----------|
--7--9------9-7--------------|--7--9------9--------7--5--2-|
-----------------------------|---------------------------2-|
-----------------------------|---------------------------0-|


  E  E  E  E  E  E  S E  S    S S E  E  E  E  E  S E  S  
---------------------------|----------------------------|
---------------------------|----------------------------|
---------------------------|----------------------------|
--L--5-----5-----7----5--2-|--L---5-----5-----7----5--2-|
--L--5-----5-----7----5--2-|--L---5-----5-----7----5--2-|
--L--3--0--3--0--5--0-3--0-|--L-0-3--0--3--0--5--0-3--0-|


  E  E  E  E  E  E  S E  S    S S E  E  E  E  E  S E  S  
---------------------------|----------------------------|
---------------------------|----------------------------|
---------------------------|----------------------------|
--L--5-----5-----7----5--2-|--L---5-----5-----7----5----|
--L--5-----5-----7----5--2-|--L---5-----5-----7----5----|
--L--3--0--3--0--5--0-3--0-|--L-0-3--0--3--0--5--0-3----|


  E  E   E  E  E   E  E  S S    E  E  E  E  E  E  E  S S  
---------5--7--7b--7--5------|---------------------------|
-----5b------------------7-8-|--L-----6-----6-----5----7-|
-----------------------------|--------5-----5-----5----7-|
-----------------------------|--------7-----7-----5----7-|
-----------------------------|---------------------------|
-----------------------------|---------------------------|


  E  E   E  E  E   E  E  S  S    S E.  Q    E  E  E  S S  
---------5--7--7b--7--5-------|--------------------------|
-----5b------------------7h-8-|----5--------6-----5----7-|
------------------------------|-------------5-----5----7-|
------------------------------|-------------7-----5----7-|
------------------------------|--------------------------|
------------------------------|--------------------------|


  E  E   E  E  E   E  E  S S    Q    Q    H            W                 
---------5--7--7b--7--5------|---------------------|--------------------|
-----5b------------------7-8-|--L---------8--------|--10----------------|
-----------------------------|------------7--------|---9----------------|
-----------------------------|---------------------|--------------------|
-----------------------------|---------------------|--------------------|
-----------------------------|---------------------|--------------------|


   S  E.   S  E.   S  E.   S  E  S  
-----------------------------------|
--12-12---12-12---12-12---12-12----|
--11-11---11-11---11-11---11-11----|
-----------------------------------|
-----------------------------------|
-----------------------------------|


       NH     NH                     NH  NH                NH               
                       |-3-| |-3-|                                          
  E    E      Q.       S S S S S S   S   S     Q    S  S   S  S E  E  Q     
-----------------------------------<>5-<>5~-|--L---------------------------|
--------------------------------------------|------------------------------|
-----<>4pb--<>4pb---------------------------|-------7\---<>4b--------------|
-----------------------x-x-x-x-x-x----------|------------------------------|
--------------------------------------------|----------x------x------------|
--------------------------------------------|-------------------x----------|


                                                                           NH   
  E    S E  Q    S S  S S  S S  S    S  S S S S  S S  S S  S S  S S  S S   S    
-----/10-L--L----9-7p-5-----------|--------------------------------------------|
------------------------8p-5-7h-8-|--9p-5--------------------------------------|
----------------------------------|-------6---9p-7-----------------------<>5b~-|
----------------------------------|---------9------9p-6-8p-6-7p-6-5s-6---------|
----------------------------------|------------------------------------7-------|
----------------------------------|--------------------------------------------|


       |-3-| |-3-|    |-3-| |-3-|                                           
  Q    S S S S S S E  S S S S S S S S    E  S S S S  S  S  S  S  E  E.   S  
--------------------------------------|---------------------------------12-|
-------------------8--------------5-5-|--L------8-9-10-11-12---------------|
--L-----------------------------------|-----6----------------12b-L---------|
--------------------------------------|-------9----------------------------|
-------x-x-x-x-x-x----x-x-x-x-x-x-----|------------------------------------|
--------------------------------------|------------------------------------|


               |---6--|   |--6--|   |---6--|   |--6--|   
  Q.     S  S  S  S   S   S  S  S   S  S   S   S  S  S   
--L------L-12-10---------------------------------10-----|
-----------------12p-11p-10p-9--------10h-11h-12----12h-|
-------------------------------12h-13-------------------|
--------------------------------------------------------|
--------------------------------------------------------|
--------------------------------------------------------|


   |---6--|  |---6--|  |--6--|  |--6-|               
   S   S  S  S  S   S  S  S  S  S  S S Q    S  E.    
----------------------------------------------18b---|
--11p-10p-9-----------------------------------------|
------------12-----------------13\-L----------------|
---------------14p-12p-9----------------------------|
-------------------------11-------------------------|
----------------------------12----------------------|


   S.T  E    S.T  S.T  E    S  S  S  S  S  S  
--17-x-15b--15-x-12-x-10b--14----------------|
------------------------------14-12-11-10----|
------------------------------------------12-|
---------------------------------------------|
---------------------------------------------|
---------------------------------------------|


                                                          |-3-| |-3-|         
   S   S S S  S  S S  S  S  S Q.         E   S  S  E   E  S S S S S S  Q      
--------------------------------------|--------------------------------------|
--------------------------------------|--------------------------------------|
--12s-13-9----------------------------|-------------------------------11b----|
-----------9-12-11-9------------------|--------------------------------------|
---------------------13-12----9b------|--L-----------------------------------|
---------------------------12---------|-----12-10-12~--L--x-x-x-x-x-x--------|


                   NH                                                     
  Q     S S  S S   Q      S  E   S    S S E  E   Q      S  S  S  S  S  S  
-----------------------------------|-------------------------------------|
-----------------------------------|-------------------------------------|
--L----11-9-----------------12-----|------------15b-------16-14----13----|
------------11-9-<>5br----L-----14-|--L----------------14-------14----14-|
-----------------------------------|-------------------------------------|
-----------------------------------|-------------------------------------|


   S  S  S  S  S  S  S  T   T  S  S  S  S  S  S  S  S  
------------------------------------------------------|
------------------------------------------------------|
--12-13-----------------------------------------------|
--------14-11----14----14p-12-------------------------|
--------------14----14--------14-14-12----12----10-11-|
---------------------------------------12----12-------|


                                         NH            NH                     
         |-3-| |-3-|     |-3-| |-3-|                                          
   Q     S S S S S S  E  S S S S S S S   S    E  S S   S S S S S S Q     S S  
-------------------------------------------|---------------------------------|
-------------------------------------------|---------------------------------|
-------------------------------------------|---------------------------------|
-------------------------------------------|---------------------------------|
---------------------10--------------7-<>7-|--L--5---------------------------|
--12~----x-x-x-x-x-x-----x-x-x-x-x-x-------|-------5-<>7-7-4-5-5-3-3b----L-0-|


                                          tr                   
  W                   W                   W                    
-------------------|-------------------|----------------------|
-------------------|-------------------|----------------------|
-------------------|-------------------|--4(7)----------------|
-------------------|-------------------|----------------------|
-------------------|-------------------|----------------------|
-------------------|-------------------|----------------------|


  W                   Q     H.              W                 
-------------------|---------------------|-------------------|
-------------------|---------------------|-------------------|
--L----------------|--9\-----------------|-------------------|
-------------------|---------------------|-------------------|
-------------------|---------------------|-------------------|
-------------------|---------------------|-------------------|


                                    PM PM PM                         
  W                   H        S E  E  E  S     S S E  H.            
-------------------|-------------------------|----------------------|
-------------------|-------------------7--8--|--L-------------------|
--7----------------|--L--------L-6--6--7--9--|--L-------------------|
--9----------------|--L--------L-7--7--------|----------------------|
-------------------|-------------------------|----------------------|
-------------------|-------------------------|----------------------|


  W                   W                   H        S E  E  E.   
-------------------|-------------------|-----------------------|
-------------------|-------------------|-----------------------|
-------------------|-------------------|----------------2--3---|
-------------------|-------------------|-------------6--2--3---|
-------------------|-------------------|-------------6--0--1---|
-------------------|-------------------|-------------4---------|


  E  E  E   S E   E  Q     S    E  E  E   S E    E   Q     S  
-----------------------------|-------------------------------|
-----------------10--9~----L-|------------------10--10~----L-|
--------7~--------9--9~----L-|--------7~----9b--11---9~----L-|
--7--9------9-7--------------|--7--9------9------------------|
-----------------------------|-------------------------------|
-----------------------------|-------------------------------|


  E  E  E   S E   E  Q     S    E  E  E   S E   E  E  E  S  
-----------------------------|-----------------------------|
-----------------10--9~----L-|-----------------------------|
--------7~--------9--9~----L-|--------7~----9b--7----------|
--7--9------9-7--------------|--7--9------9--------7--5--2-|
-----------------------------|---------------------------2-|
-----------------------------|---------------------------0-|


  E  E  E  E  E  E  S E  S    S S E  E  E  E  E  S E  S  
---------------------------|----------------------------|
---------------------------|----------------------------|
---------------------------|----------------------------|
--L--5-----5-----7----5--2-|--L---5-----5-----7----5--2-|
--L--5-----5-----7----5--2-|--L---5-----5-----7----5--2-|
--L--3--0--3--0--5--0-3--0-|--L-0-3--0--3--0--5--0-3--0-|


                                                        NH 
  E  E  E  E  E  E  S E  S    S S E  E  E  E  E  S E    S  
---------------------------|------------------------------|
---------------------------|------------------------------|
---------------------------|--------------------------<>5-|
--L--5-----5-----7----5--2-|--L---5-----5-----7----5------|
--L--5-----5-----7----5--2-|--L---5-----5-----7----5------|
-----3--0--3--0--5--0-3--0-|--L-0-3--0--3--0--5--0-3------|


                           NH                              NH 
  E  E  E  E  E  E  S E    S     S S E  E  E  E  E  S E    S  
------------------------------|------------------------------|
-------------------------<>5~-|--L-L-------------------------|
--L---------------------------|--------------------------<>5-|
-----5-----5-----7----5-------|------5-----5-----7----5------|
-----5-----5-----7----5-------|------5-----5-----7----5------|
-----3--0--3--0--5--0-3-------|----0-3--0--3--0--5--0-3------|


                           NH                              
  E  E  E  E  E  E  S E    S     S S E  E  E  S E  E  E.   
------------------------------|---------------------------|
-------------------------<>5~-|--L-L----------------------|
--L---------------------------|-----------------2--3--4---|
-----5-----5-----7----5-------|------5-----5----2--3--4---|
-----5-----5-----7----5-------|------5-----5----0--1--2---|
-----3--0--3--0--5--0-3-------|----0-3--0--3--0-----------|


                           NH                              NH 
  E  E  E  E  E  E  S E    S     S S E  E  E  E  E  S E    S  
------------------------------|------------------------------|
-------------------------<>5~-|--L-L-------------------------|
------------------------------|--------------------------<>5-|
--2--5-----5-----7----5-------|------5-----5-----7----5------|
--2--5-----5-----7----5-------|------5-----5-----7----5------|
--0--3--0--3--0--5--0-3-------|----0-3--0--3--0--5--0-3------|


                           NH                              
  E  E  E  E  E  E  S E    S     S S E  E  E  S E  E  E.   
------------------------------|---------------------------|
-------------------------<>5~-|--L-L----------------------|
--L---------------------------|--------------------2--3---|
-----5-----5-----7----5-------|------5-----5----6--2--3---|
-----5-----5-----7----5-------|------5-----5----6--0--1---|
-----3--0--3--0--5--0-3-------|----0-3--0--3--0-4---------|


  E  E  E   S E   E  Q     S    E  E  E   S E    E   Q     S  
-----------------------------|-------------------------------|
-----------------10--9~----L-|------------------10--10~----L-|
--------7~--------9--9~----L-|--------7~----9b--11---9~----L-|
--7--9------9-7--------------|--7--9------9------------------|
-----------------------------|-------------------------------|
-----------------------------|-------------------------------|


  E  E  E   S E   E  Q     S    E  E  E   S E   E  E  E  S  
-----------------------------|-----------------------------|
-----------------10--9~----L-|-----------------------------|
--------7~--------9--9~----L-|--------7~----9b--7----------|
--7--9------9-7--------------|--7--9------9--------7--5--2-|
-----------------------------|---------------------------2-|
-----------------------------|---------------------------0-|


  E  E  E  E  E  E  S E  S    S S E  E  E  E  E  S E  S  
---------------------------|----------------------------|
---------------------------|----------------------------|
---------------------------|----------------------------|
--L--5-----5-----7----5--2-|--L---5-----5-----7----5--2-|
--L--5-----5-----7----5--2-|--L---5-----5-----7----5--2-|
--L--3--0--3--0--5--0-3--0-|--L-0-3--0--3--0--5--0-3--0-|


  E  E  E  E  E  E  S E  S    S S E  E  E  E  E  S E  S  
---------------------------|----------------------------|
---------------------------|----------------------------|
---------------------------|----------------------------|
--L--5-----5-----7----5--2-|--L---5-----5-----7----5--2-|
--L--5-----5-----7----5--2-|--L---5-----5-----7----5--2-|
--L--3--0--3--0--5--0-3--0-|--L-0-3--0--3--0--5--0-3--0-|


  E  E  E  E  E  E  S E  S    S S E  E  E  E  E  S E  S  
---------------------------|----------------------------|
---------------------------|----------------------------|
---------------------------|--------------------------L-|
--L--5-----5-----7----5--2-|--L---5-----5-----7----5--2-|
--L--5-----5-----7----5--2-|--L---5-----5-----7----5--2-|
--L--3--0--3--0--5--0-3--0-|--L-0-3--0--3--0--5--0-3--0-|


  E  E  E  E  E  E  S E  S    S S E  E  E  E  E  S E  S  
---------------------------|----------------------------|
---------------------------|----------------------------|
---------------------------|----------------------------|
--L--5-----5-----7----5--2-|--L---5-----5-----7----5----|
--L--5-----5-----7----5--2-|--L---5-----5-----7----5----|
--L--3--0--3--0--5--0-3--0-|--L-0-3--0--3--0--5--0-3----|


  E  E   E  E  E   E  E  S S    E  E  E  E  E  E  E  S S  
---------5--7--7b--7--5------|---------------------------|
-----5b------------------7-8-|--L-----6-----6-----5----7-|
-----------------------------|--------5-----5-----5----7-|
-----------------------------|--------7-----7-----5----7-|
-----------------------------|---------------------------|
-----------------------------|---------------------------|


  E  E   E  E  E   E  E  S  S    S E.  Q    E  E  E  S S  
---------5--7--7b--7--5-------|--------------------------|
-----5b------------------7h-8-|----5--------6-----5----7-|
------------------------------|-------------5-----5----7-|
------------------------------|-------------7-----5----7-|
------------------------------|--------------------------|
------------------------------|--------------------------|


  E  E   E  E  E   E  E  S S    Q    Q    H            W                 
---------5--7--7b--7--5------|---------------------|--------------------|
-----5b------------------7-8-|--L---------8--------|--10----------------|
-----------------------------|------------7--------|---9----------------|
-----------------------------|---------------------|--------------------|
-----------------------------|---------------------|--------------------|
-----------------------------|---------------------|--------------------|


   S  E.   S  E.   S  E.   S  E.      S  E.   S  E.   S  E   E   E   S  
----------------------------------|------------------------------------|
--12-12---12-12---12-12---12-12---|--12-12---12-12---12----------------|
--11-11---11-11---11-11---11-11---|--11-11---11-11---11----------------|
----------------------------------|---------------------12-------------|
----------------------------------|-------------------------12--10-----|
----------------------------------|---------------------------------12-|


  S S E  H.             
----------------------||
----------------------||
----------------------||
----------------------||
----------------------||
--L-------------------||




Duration Legend
---------------
W - whole
H - half
Q - quarter
E - 8th
S - 16th
T - 32nd
X - 64th
. - note dotted
|-n-|  - n-tuplets


Tablature Legend
----------------
L - tied note
x - dead note
g - grace note
(n) - ghost note
> - accentuded note
NH - natural harmonic
AH - artificial harmonic
TH - tapped harmonic
SH - semi harmonic
PH - pitch harmonic
h - hammer on
p - pull off
b - bend
br - bendRelease
pb - preBend
pbr - preBendRelease
brb - bendReleaseBend
\n/ - tremolo bar dip
\n - tremolo bar dive
-/n - tremolo bar Release up
/n\ - tremolo bar inverted dip
/n - tremolo bar return
-\n - tremolo bar Release down
S - shift slide
s - legato slide
/ -  slide into from below or out of upwards
\ -  slide into from above or out of downwards
~ - vibrato
W - wide vibrato
tr - trill
TP - tremolo picking
T - tapping
S - slap
P - pop
< - fade in
^ - brush up
v - brush down

            
            
Suggest correction
Creating personal tab
Creating personal tab
You can edit any tab online and save it as your Personal.

You can edit, replace or remove any tab part or add personal notes – all changes will be seen only by you.

Personal tabs can be accessed anytime from any device, even offline.
Learn more »
Give kudos to tab author, rate the tab!
1 2 3 4 5
comments
print report bad tab
guest
Wanna post a correction for this tab? Suggest correction