Oops, an error
Loading. Please wait.

Whats Going On Here bass

version 1
version 1

Whole song

Interactive

850 views 1 this week
no commentswrite comment
1 2 3 4 5
3 more votes to show rating
add to favorites
×
Save as Personal and add changes to this tab that will be seen only by you. Learn more ›
×
You can save this tab as Personal to edit and correct it or add notes. All changes will be seen only by you. Learn more »
launch autoscroll
font size
0
reset
guitar tuner
backing track
0:00
0:00
edit
Autoscroll
slow
fast
+/-
esc
set tempo
stop
Author
What's Going On Here                             


                                                                deep purple
bass



     H.           E  E     H.           E  E     H.           E  E   
G||---------------------|---------------------|---------------------|
D||---------------------|---------------------|---------------------|
A||------------------0--|--2------------L-----|------------------0--|
E||---------------------|------------------0--|--L------------L-----|


  H.           E  E     H.           E  E     H.           E  E   
---------------------|---------------------|---------------------|
---------------------|---------------------|---------------------|
--2------------L-----|------------------0--|--2------------L-----|
------------------0--|--L------------L-----|------------------3--|


  H.           E  E     E  E  H.                    
---------------------|---------------------|-------|
---------------------|---------------------|-------|
---------------------|---------------------|-------|
--L------------L--L--|--2------------------|-------|


    E  E  E  E  E  E  E  E     E  E  E  E  E  E  E  E   
|---------4--4--------4--4--|--------------------------|
|*--------------------------|--------------------------|
|*--2--2--------2--2--------|--2--2--------0--0--1--1--|
|---------------------------|--------4--4--------------|


  E  E  E  E  E  E  E  E     E  E  E  E  E  E  E  E   
--------4--4--------4--4--|--------------------------|
--------------------------|--------------------------|
--2--2--------2--2--------|--2--2--------0--0--1--1--|
--------------------------|--------4--4--------------|


  E  E  E  E  E  E  E  E     E  E  E  E  E  E  E  E   
--------4--4--------4--4--|--------------------------|
--------------------------|--------------------------|
--2--2--------2--2--------|--2--2--------0--0--1--1--|
--------------------------|--------4--4--------------|


  E  E  E  E  E  E  E  E     E  E  E  E  E  E  E  E   
--------4--4--------4--4--|--------------------------|
--------------------------|--------------0--0--1--1--|
--2--2--------2--2--------|--2--2--4--4--------------|
--------------------------|--------------------------|


  E  E  E  E  E  E  E  E     E  E  E  E  E  E  E  E   
--------------------------|--------------------------|
--2--2--2--2--2--2--2--2--|--2--2--------------------|
--------------------------|--------------0--0--1--1--|
--------------------------|--------4--4--------------|


  E  E  E  E  E  E  E  E     E  E  E  E  E  E  E  E   
--------------------------|--------------------------|
--2--2--2--2--2--2--2--2--|--2--2--------------------|
--------------------------|--------------0--0--1--1--|
--------------------------|--------4--4--------------|


  E  E  E  E  E  E  E  E     E  E  E  E  E  E  E  E   
--------4--4--------4--4--|--------------------------|
--------------------------|--------------------------|
--2--2--------2--2--------|--2--2--------0--0--1--1--|
--------------------------|--------4--4--------------|


  E  E  E  E  E  E  E  E     E  E  E  E  E  E  E  E   
--------4--4--------4--4--|--------------------------|
--------------------------|--------------------------|
--2--2--------2--2--------|--2--2--2--2--2--2--4--4--|
--------------------------|--------------------------|


  E  E  E  E  E  E  E  E     E  E  E  E  E  E  E  E   
--------------------------|--------------------------|
--0--0--------------------|--0--0--------------------|
--------3--3--0--0--------|--------------------0--0--|
--------------------2--2--|--------2--2--3--3--------|


  E  E  E  E  E  E  E  E     E  E  E  E  E  E  E  E   
--------------------------|--------------------------|
--2--2--------------------|--------------------------|
--------4--4--2--2--------|-----------------------0--|
--------------------4--4--|--0--0--2--2--3--3--4-----|


  H.           E  E     H.           E  E     H.           E  E   
---------------------|---------------------|---------------------|
---------------------|---------------------|---------------------|
--2------------L-----|------------------0--|--2------------L-----|
------------------0--|--L------------L-----|------------------0--|


  H.           E  E     H.           E  E     H.           E  E   
---------------------|---------------------|---------------------|
---------------------|---------------------|---------------------|
------------------0--|--2------------L-----|---------------------|
--L------------L-----|------------------3--|--L------------L--L--|


  E  E  H.                        E  E  H.              W                 
---------------------|--------||---------------------|-------------------|
---------------------|-------*||---------------------|-------------------|
---------------------|-------*||---------------------|-------------------|
--2------------------|--------||--2------------------|-------------------|


  E  E  E  E  E  E  E  E     E  E  E  E  E  E  E  E   
--------4--4--------4--4--|--------4--4--------4--4--|
--------------------------|--------------------------|
--2--2--------2--2--------|--2--2--------2--2--------|
--------------------------|--------------------------|


  E  E  E  E  E  E  E  E     E  E  E  E  E  E  E  E   
--------4--4--------4--4--|--------------------------|
--------------------------|--------------------------|
--2--2--------2--2--------|--2--2--------0--0--1--1--|
--------------------------|--------4--4--------------|


              |--3--|  |--3--|                              
  E  E  E  E  E  E  E  E  E  E     E  E  E  E  E  E  E  E   
--------4--4-----4-----4--2-----|--------------------------|
-----------------------------4--|--------------------------|
--2--2--------------------------|--2--2--------0--0--1--1--|
--------------------------------|--------4--4--------------|


  E  E  E  E  E  E  E  E     E  E  E  E  E  E  E  E   
--------4--4--------4--4--|--------------------------|
--------------------------|--------------------------|
--2--2--------2--2--------|--2--2--------0--0--1--1--|
--------------------------|--------4--4--------------|


  E  E  E  E  E  E  E  E     E  E  E  E  E  E  E  E   
--------------------------|--------------------------|
--2--2--2--2--2--2--2--2--|--------------------------|
--------------------------|--------------------------|
--------------------------|--0--0--2--2--3--3--4--4--|


  E  E  E  E  E  E  E  E     E  E  E  E  E  E  E  E   
--------------------------|--------------------------|
--2--2--2--2--2--2--2--2--|--------------------------|
--------------------------|--------------------------|
--------------------------|--0--0--2--2--3--3--4--4--|


  E  E  E  E  E  E  E  E     E  E  E  E  E  E  E  E   
--------4--4--------4--4--|--------4--4--------4--4--|
--------------------------|--------------------------|
--2--2--------2--2--------|--2--2--------2--2--------|
--------------------------|--------------------------|


                             |--3--|        |--3--|  |--3--|   
  E  E  E  E  E  E  E  E     E  E  E  E  E  E  E  E  E  E  E   
--------4--4--------4--4--|-----4-----4--4-----4-----4--2-----|
--------------------------|--------------------------------4--|
--2--2--------2--2--------|--2-----2--------2-----------------|
--------------------------|-----------------------------------|


  E  E  E  E  E  E  E  E     E  E  E  E  E  E  E  E   
--------------------------|--------------------------|
--0--0--------------------|--0--0--------------------|
--------------------------|--------2--2--0--0--------|
--------2--2--3--3--4--4--|--------------------2--2--|


  E  E  E  E  E  E  E  E     E  E  E  E  E  E  E  E   
--------------------------|--------------------------|
--2--2--------------------|--------------------------|
--------4--4--2--2--------|-----------------------0--|
--------------------4--4--|--0--0--2--2--3--3--4-----|


  H.           E  E     H.           E  E     H.           E  E   
---------------------|---------------------|---------------------|
---------------------|---------------------|---------------------|
--2------------L-----|------------------0--|--2------------L-----|
------------------0--|--L------------L-----|------------------0--|


  H.           E  E     H.           E  E     H.           E  E   
---------------------|---------------------|---------------------|
---------------------|---------------------|---------------------|
------------------0--|--2------------L-----|---------------------|
--L------------L-----|------------------3--|--L------------L--L--|


  E  E  H.                      E  E  E  E  E  E  E  E   
---------------------|-------|--------4--4--------4--4--|
---------------------|-------|--------------------------|
---------------------|-------|--2--2--------2--2--------|
--2------------------|-------|--------------------------|


  E  E  E  E  E  E  E  E     E  E  E  E  E  E  E  E   
--------------------------|--------4--4--------4--4--|
--------------------------|--------------------------|
--2--2--------0--0--1--1--|--2--2--------2--2--------|
--------4--4--------------|--------------------------|


  E  E  E  E  E  E  E  E     E  E  E  E  E  E  E  E   
--------------------------|--------4--4--------4--4--|
--------------------------|--------------------------|
--2--2--------0--0--1--1--|--2--2--------2--2--------|
--------4--4--------------|--------------------------|


  E  E  E  E  E  E  E  E     E  E  E  E  E  E  E  E   
--------------------------|--------4--4--------4--4--|
--------------------------|--------------------------|
--2--2--------0--0--1--1--|--2--2--------2--2--------|
--------4--4--------------|--------------------------|


  E  E  E  E  E  E  E  E     E  E  E  E  E  E  E  E   
--------------------------|--------9--9--------9--9--|
--------------0--0--1--1--|--2--2--------2--2--------|
--2--2--4--4--------------|--------------------------|
--------------------------|--------------------------|


  E  E  E  E  E  E  E  E     E  E  E  E  E  E  E  E   
--------9--9--------9--9--|--------9--9--------9--9--|
--2--2--------2--2--------|--2--2--------2--2--------|
--------------------------|--------------------------|
--------------------------|--------------------------|


  E  E  E  E  E  E  E  E     E  E  E  E  E  E  E  E   
--------------------------|--------4--4--------4--4--|
--2--2--------------------|--------------------------|
--------------0--0--1--1--|--2--2--------2--2--------|
--------4--4--------------|--------------------------|


  E  E  E  E  E  E  E  E     E  E  E  E  E  E  E  E   
--------------------------|--------4--4--------4--4--|
--------------------------|--------------------------|
--2--2--------0--0--1--1--|--2--2--------2--2--------|
--------4--4--------------|--------------------------|


  E  E  E  E  E  E  E  E     E  E  E  E  E  E  E  E   
--------------------------|--------------------------|
--------------------------|--0--0--------------------|
--2--2--2--2--2--2--4--4--|--------3--3--0--0--------|
--------------------------|--------------------2--2--|


  E  E  E  E  E  E  E  E     E  E  E  E  E  E  E  E   
--------------------------|--------------------------|
--0--0--------------------|--2--2--------------------|
--------------------0--0--|--------4--4--2--2--------|
--------2--2--3--3--------|--------------------4--4--|


  E  E  E  E  E  E  E  E     H.           E  E     H.           E  E   
--------------------------|---------------------|---------------------|
--------------------------|---------------------|---------------------|
-----------------------0--|--2------------L-----|------------------0--|
--0--0--2--2--3--3--4-----|------------------0--|--L------------L-----|


  H.           E  E     H.           E  E     H.           E  E   
---------------------|---------------------|---------------------|
---------------------|---------------------|---------------------|
--2------------L-----|------------------0--|--2------------L-----|
------------------0--|--L------------L-----|------------------3--|


  H.           E  E     E  E  H.                    
---------------------|---------------------|-------|
---------------------|---------------------|-------|
---------------------|---------------------|-------|
--L------------L--L--|--2------------------|-------|


  E  E  E  E  E  E  E  E     E  E  E  E  E  E  E  E   
--------4--4--------4--4--|--------------------------|
--------------------------|--------------------------|
--2--2--------2--2--------|--2--2--------0--0--1--1--|
--------------------------|--------4--4--------------|


  E  E  E  E  E  E  E  E     E  E  E  E  E  E  E  E   
--------4--4--------4--4--|--------------------------|
--------------------------|--------------------------|
--2--2--------2--2--------|--2--2--------0--0--1--1--|
--------------------------|--------4--4--------------|


  E  E  E  E  E  E  E  E     E  E  E  E  E  E  E  E   
--------4--4--------4--4--|--------------------------|
--------------------------|--------------------------|
--2--2--------2--2--------|--2--2--------0--0--1--1--|
--------------------------|--------4--4--------------|


  E  E  E  E  E  E  E  E     E  E  E  E  E  E  E  E   
--------4--4--------4--4--|--------------------------|
--------------------------|--------------0--0--1--1--|
--2--2--------2--2--------|--2--2--4--4--------------|
--------------------------|--------------------------|


  E  E  E  E  E  E  E  E     E  E  E  E  E  E  E  E   
--------------------------|--------------------------|
--2--2--2--2--2--2--2--2--|--2--2--------------------|
--------------------------|--------------0--0--1--1--|
--------------------------|--------4--4--------------|


  E  E  E  E  E  E  E  E     E  E  E  E  E  E  E  E   
--------------------------|--------------------------|
--2--2--2--2--2--2--2--2--|--2--2--------------------|
--------------------------|--------------0--0--1--1--|
--------------------------|--------4--4--------------|


  E  E  E  E  E  E  E  E     E  E  E  E  E  E  E  E   
--------4--4--------4--4--|--------------------------|
--------------------------|--------------------------|
--2--2--------2--2--------|--2--2--------0--0--1--1--|
--------------------------|--------4--4--------------|


  E  E  E  E  E  E  E  E     E  E  E  E  E  E  E  E   
--------4--4--------4--4--|--------------------------|
--------------------------|--------------------------|
--2--2--------2--2--------|--2--2--2--2--2--2--4--4--|
--------------------------|--------------------------|


  E  E  E  E  E  E  E  E     E  E  E  E  E  E  E  E   
--------------------------|--------------------------|
--0--0--------------------|--0--0--------------------|
--------3--3--0--0--------|--------------------0--0--|
--------------------2--2--|--------2--2--3--3--------|


  E  E  E  E  E  E  E  E     E  E  E  E  E  E  E  E   
--------------------------|--------------------------|
--2--2--------------------|--0--0--------------------|
--------4--4--2--2--------|-----------------------0--|
--------------------------|--------2--2--3--3--4-----|


  E  E  E  E  E  E  E  E     E  E  E  E  E  E  E  E   
--------5--5--2--2--------|--------------------------|
--------------------4--4--|--0--0--------------------|
--5--5--------------------|--------------------0--0--|
--------------------------|--------2--2--3--3--------|


  E  E  E  E  E  E  E  E     E  E  E  E  E  E  E  E   
--------------------------|--------------------------|
--2--2--------------------|--------------------------|
--------4--4--2--2--------|-----------------------0--|
--------------------4--4--|--0--0--2--2--3--3--4-----|


  H.           E  E     H.           E  E     H.           E  E   
---------------------|---------------------|---------------------|
---------------------|---------------------|---------------------|
--2------------L-----|------------------0--|--2------------L-----|
------------------0--|--L------------L-----|------------------0--|


  H.           E  E     H.           E  E     H.           E  E   
---------------------|---------------------|---------------------|
---------------------|---------------------|---------------------|
------------------0--|--2------------L-----|---------------------|
--L------------L-----|------------------3--|--L------------L--L--|


                                |--3--|       |--3--|        
  E  E  H.                      E  E  E  Q    E  E  E  Q     
---------------------|-------|------------------------------|
---------------------|-------|-----------0-------------2----|
---------------------|-------|--2--0--2-------2--0--2-------|
--2------------------|-------|------------------------------|


  |--3--|       |--3--|                                                    
  E  E  E  Q    E  E  E  Q       E  Q.     H           E  Q.     H         
------------------------------|--4--2------L--------|---------------------|
-----------0-------------2----|---------------------|--2--0------L--------|
--2--0--2-------2--0--2-------|---------------------|---------------------|
------------------------------|---------------------|---------------------|


  W                   W                  
-------------------|-------------------||
-------------------|-------------------||
--2----------------|--L----------------||
-------------------|-------------------||




Duration Legend
---------------
W - whole
H - half
Q - quarter
E - 8th
S - 16th
T - 32nd
X - 64th
. - note dotted
|-n-|  - n-tuplets


Tablature Legend
----------------
L - tied note
x - dead note
g - grace note
(n) - ghost note
> - accentuded note
NH - natural harmonic
AH - artificial harmonic
TH - tapped harmonic
SH - semi harmonic
PH - pitch harmonic
h - hammer on
p - pull off
b - bend
br - bendRelease
pb - preBend
pbr - preBendRelease
brb - bendReleaseBend
\n/ - tremolo bar dip
\n - tremolo bar dive
-/n - tremolo bar Release up
/n\ - tremolo bar inverted dip
/n - tremolo bar return
-\n - tremolo bar Release down
S - shift slide
s - legato slide
/ -  slide into from below or out of upwards
\ -  slide into from above or out of downwards
~ - vibrato
W - wide vibrato
tr - trill
TP - tremolo picking
T - tapping
S - slap
P - pop
< - fade in
^ - brush up
v - brush down

            
            
Suggest correction
Creating personal tab
Creating personal tab
You can edit any tab online and save it as your Personal.

You can edit, replace or remove any tab part or add personal notes – all changes will be seen only by you.

Personal tabs can be accessed anytime from any device, even offline.
Learn more »
Give kudos to tab author, rate the tab!
1 2 3 4 5
comments
print report bad tab
guest
You may want to rate the tab now too:
select rating
Wanna post a correction for this tab? Suggest correction