Oops, an error
Loading. Please wait.

20 Miles tab

version 1
version 1

Whole song

43,549 views 156 this week
5 commentsread comments
1 2 3 4 5
x 47
add to favorites
×
Save as Personal and add changes to this tab that will be seen only by you. Learn more ›
×
You can save this tab as Personal to edit and correct it or add notes. All changes will be seen only by you. Learn more »
launch autoscroll
font size
0
reset
how to read this tab
guitar tuner
edit
Autoscroll
slow
fast
+/-
esc
set tempo
stop
DEER TICK - 20 MILES

Tabbed by Sam Wallis (sam_8orbetter@hotmail.co.uk)

CAPO 5TH

C - G - Am - Em
(could also be played without capo... F - C - D - Am)


Finger picking please, rough picking guide:

   C            G            Am            Em  
e|-------------------------------------------------(0)-----------------------|
B|----1------------0-------------1------------0------------------------------|
G|-------0------------0-------------2------------0---------------------------|
D|----------2------------0-------------2------------2------------------------|
A|-3--------------------------0----------------------------------------------|
E|--------------3--------------------------0---------------------------------|



C              G             Am      Em
Raindrops like bullets on my fragile skin
        C               G       Am       Em
And the securities I've had are creeping within
        C  G                    Am             Em 
Now I'm 20 miles outside of the place that you live
      C             G               Am             Em   
And I need one more chance now that time's running thin
Em 

C                G           Am         Em           
Well you are the things that make up my dreams
         C           G         Am            Em  
And I've spent every dime that jingles in my jeans
C               G            Am            Em  
I deserve every stone that's thrown out at me
      C             G             Am             Em 
And I think of your smile, I'm in love with your teeth
Em

C               G        Am         Em 
I'm losin' when I am not playin' no games
     C                 G           Am        Em     
Now, would you take me back when I gamble my pain?
C          G                 Am          Em
I've got no direction without her little fingers
C            G           Am                    Em
Barbed wire, razor wire, nothing keeps me from her

C               G          Am               Em 
Now if I had no boots, I'd trek through the mud
      C             G         Am             Em 
While mosquitos are racing to draw the first blood
C         G                      Am          Em  
If you're runnin' away, then I'm lookin' for you
       C                G        Am         Em  
And if you've lost your way, I'm seein' you through.

            
            
Suggest correction
Creating personal tab
Creating personal tab
You can edit any tab online and save it as your Personal.

You can edit, replace or remove any tab part or add personal notes – all changes will be seen only by you.

Personal tabs can be accessed anytime from any device, even offline.
Learn more »
comments
print report bad tab
5 comments total. Showing first comments.
+1 reply
mitchmitchhh 134 Oct 21, 2012 01:48 PM

the picking actually goes like this:

e|------------------------------------------------------------------|
B|----1------------0-------------1------------0---------------------|
G|----------0------------0-------------2------------0---------------|
D|-------2------------0-------------2------------2------------------|
A|-3--------------------------0-------------------------------------|
E|--------------3--------------------------0------------------------|


Other than that, good tab!

+5 reply
mitchmitchhh 134 Oct 21, 2012 02:07 PM

Sorry, i meant like this:

e|------------------------------------------------------------------|
B|----1------------0-------------1------------0---------------------|
G|----------0------------0-------------0------------0---------------|
D|-------0------------0-------------2------------2------------------|
A|-3--------------------------0-------------------------------------|
E|--------------3--------------------------0------------------------|


And for that long part with the Em chord I believe the picking goes like this:

e|------------0-----------------------0-----------------------------|
B|------0-----------0-----------0-----------0-----------------------|
G|------------------------0-----------------------0-----------------|
D|---------2-----------2-----------2-----------2--------------------|
A|------------------------------------------------------------------|
E|---0-----------0-----------0-----------0--------------------------|

0 reply
wesside01 10 Oct 10, 2015 10:55 AM



Mitchmitchh I think you're much closer but I think there's a melody note that's played with the basenote in the C chord and the Am.
They play it differently live and on the recording. I used this link to sound it out. https://www.youtube.com/watch?v=bK1GUVzVxOM

e|------------------------------------------------------------------|
B|-1--1------------0----------1--1------------0---------------------|
G|----------0------------0-------------0------------0---------------|
D|-------0------------0-------------2------------2------------------|
A|-3--------------------------0-------------------------------------|
E|--------------3--------------------------0------------------------|

For the intro they do this 4 times and on the last Em they hit the high E string open before going into the Em bit before startign the lyrics

guest
You may want to rate the tab now too:
select rating
Wanna post a correction for this tab? Suggest correction