Oops, an error
Loading. Please wait.

Art Isnt Real tab

30,948 views 18 this week
5 commentsread comments
1 2 3 4 5
x 4
add to favorites
×
Save as Personal and add changes to this tab that will be seen only by you. Learn more ›
×
You can save this tab as Personal to edit and correct it or add notes. All changes will be seen only by you. Learn more »
launch autoscroll
font size
0
reset
how to read this tab
guitar tuner
edit
Autoscroll
slow
fast
+/-
esc
set tempo
stop
Difficulty
-------------------------------------------------------------------------------
                         Art Isn't Real - Deer Tick
-------------------------------------------------------------------------------
Tabbed by: Checkeroo

Tuning: Standard

Another easy but fun one:
E       X76545
C#m     X46654
G#m     466444
A       577655
B       799877
B7      7998(10)7
B6      799897

| E | C#m | G#m | B |
I am the dotted line,
| E | C#m | G#m | B |
And you fill me in with whatever you like.
.
.
| A |   |   |         |
There has gotta be some old recipe,'cause I gotta get 
| B |   |   | B7 B6 B |
drunk, I gotta forget about some things.

etc.


Intro:      (arp.)
e|-------7----7--------------|
B|------------10-------------|
G|-----8---8--8--------------|
D|------------9--------------|
A|------------9----------4-6-|
E|--7---------7--------7-----|

Fill:                           x2|(ending)---->|
e|--7--9--7---4--5--7---4--5--s7-:|--5--4-------|
B|--5-----5---------4----------7-:|-----------5-|
G|--4-----6---------4----------8-:|----------4--|
D|-----------------------------9-:|---------6---|
A|-------------------------------:|--------7----|
E|-------------------------------:|-------------|

            
            
Suggest correction
Creating personal tab
Creating personal tab
You can edit any tab online and save it as your Personal.

You can edit, replace or remove any tab part or add personal notes – all changes will be seen only by you.

Personal tabs can be accessed anytime from any device, even offline.
Learn more »
comments
print report bad tab
5 comments total. Showing first comments.
0 reply
Carazycool 488 Aug 29, 2010 04:08 PM

I think you meant to write: E = x76454

0 reply
John Jackson 10 Sep 27, 2011 04:57 PM

slap a capo on the 4th fret

0 reply
wraphesh 102 Nov 24, 2011 06:11 AM

He finger picks through the the chords for mot of the song. The chords are right, but there's no finger pickin pattern. I believe he does it like this. I tabbed with the assumption of a capo on the 4th fret:

|-----------------------0---|-----------------------0---|
|-------1--------1----------|------1--------1-----------|
|-------------------0-------|-------------------2-------|
|------------2--------------|-----------2---------------|
|----3----------------------|---0-----------------------|
|---------------------------|---------------------------|

|-------------------------|------------------------|
|------0-----------0------|------0------------0----|
|-------------0-----------|-------------0----------|
|----------------2--------|----------------0-------|
|----------2--------------|----------2-------------|
|---0---------------------|---3--------------------|

guest
Wanna post a correction for this tab? Suggest correction