Oops, an error
Loading. Please wait.

Hysteria bass

version 2
version 2

Whole song

Interactive

2,087 views 9 this week
no commentswrite comment
1 2 3 4 5
x 3
add to favorites
×
Save as Personal and add changes to this tab that will be seen only by you. Learn more ›
×
You can save this tab as Personal to edit and correct it or add notes. All changes will be seen only by you. Learn more »
launch autoscroll
font size
0
reset
guitar tuner
backing track
0:00
0:00
edit
Autoscroll
slow
fast
+/-
esc
set tempo
stop
Difficulty
  Intro/Verse x3   0:00 - 0:54
G|-----------------------------------------------------------------|
D|-----------------------------------------------------------------|
A|-5-5-5-5-5-5-5-5-5-5-5-5-5-5-5-5---------------------------------|
E|---------------------------------3-3-3-3-3-3-3-3-3-3-3-3-3-3-3-3-|

|-----------------------------------------------------------------|
|-----------------------------------------------------------------|
|---------------------------------5-5-5-5-5-5-5-5-5-5-5-5-5-5-5-5-|
|-0-0-0-0-0-0-0-0-3-3-3-3-3-3-3-3---------------------------------|


  Pre-Chorus x1   0:55 - 1:12
|-----------------------------------------------------------------|
|-----------------------------------------------------------------|
|-3-3-3-3-3-3-3-3-3-3-3-3-5-5-5-5---------------------------------|
|---------------------------------3-3-3-3-3-3-3-3-3-3-3-3-5-5-5-5-|

|-----------------------------------------------------------------|
|-----------------------------------------------------------------|
|-3-3-3-3-3-3-3-3-3-3-3-3-3-3-2-2-5-5-5-5-5-5-5-5-5-5-5-5-5-5-5-5-|
|-----------------------------------------------------------------|


  Chorus Part 1 x2   1:13 - 1:29
|-----------------------------------------------------------------|
|-----------------------------------------------------------------|
|-----------------3-3-3-3-3-3-3-3-5-5-5-5-5-5-5-5-5-5-5-5-5-5-5-5-|
|-0-0-0-0-0-0-0-0-------------------------------------------------|


  Chorus Part 2 x1   1:30 - 1:39
|---------------------------------------------|
|---------------------------------------------|
|-----------------3-3-3-3-3-3-3-3-5(let ring)-|
|-0-0-0-0-0-0-0-0-----------------------------|


  Verse (2nd Intro) x1   1:40 - 1:49
|-----------------------------------------------------------------|
|-----------------------------------------------------------------|
|-5-5-5-5-5-5-5-5-5-5-5-5-5-5-5-5---------------------------------|
|---------------------------------3-3-3-3-3-3-3-3-3-3-3-3-3-3-3-3-|


  Verse x2   1:50 - 2:24
|-----------------------------------------------------------------|
|-----------------------------------------------------------------|
|-5-5-5-5-5-5-5-5-5-5-5-5-5-5-5-5---------------------------------|
|---------------------------------3-3-3-3-3-3-3-3-3-3-3-3-3-3-3-3-|

|-----------------------------------------------------------------|
|-----------------------------------------------------------------|
|---------------------------------5-5-5-5-5-5-5-5-5-5-5-5-5-5-5-5-|
|-0-0-0-0-0-0-0-0-3-3-3-3-3-3-3-3---------------------------------|


  Pre-Chorus x1   2:25 - 2:42
|-----------------------------------------------------------------|
|-----------------------------------------------------------------|
|-3-3-3-3-3-3-3-3-3-3-3-3-5-5-5-5---------------------------------|
|---------------------------------3-3-3-3-3-3-3-3-3-3-3-3-5-5-5-5-|

|-----------------------------------------------------------------|
|-----------------------------------------------------------------|
|-3-3-3-3-3-3-3-3-3-3-3-3-3-3-2-2-5-5-5-5-5-5-5-5-5-5-5-5-5-5-5-5-|
|-----------------------------------------------------------------|


  Chorus Part 1 x2   2:43 - 3:00
|-----------------------------------------------------------------|
|-----------------------------------------------------------------|
|-----------------3-3-3-3-3-3-3-3-5-5-5-5-5-5-5-5-5-5-5-5-5-5-5-5-|
|-0-0-0-0-0-0-0-0-------------------------------------------------|


  Chorus Part 2 x1   3:01 - 3:13
|---------------------------------------------|
|---------------------------------------------|
|-----------------3-3-3-3-3-3-3-3-5(let ring)-|
|-0-0-0-0-0-0-0-0-----------------------------|


  Break x1   3:14            3:18
|----------------|    |----------------|
|----------------|    |----------------|
|----------------|    |----------------|
|-5(eighth rest)-|    |-5(eighth rest)-|


  Riff (Guitar Solo) x3   3:24 - 3:49
|-----------------------------------------------------------------|
|-----------------------------------------------------------------|
|---------------------------------5-5-5-5-5-5-5-5-5-5-5-5-5-5-5-5-|
|-5-5-5-5-5-5-5-5-5-5-5-5-5-5-5-5---------------------------------|


  Pre-Chorus x1   3:50 - 4:07
|-----------------------------------------------------------------|
|-----------------------------------------------------------------|
|-3-3-3-3-3-3-3-3-3-3-3-3-5-5-5-5---------------------------------|
|---------------------------------3-3-3-3-3-3-3-3-3-3-3-3-5-5-5-5-|

|-----------------------------------------------------------------|
|-----------------------------------------------------------------|
|-3-3-3-3-3-3-3-3-3-3-3-3-3-3-2-2-5-5-5-5-5-5-5-5-5-5-5-5-5-5-5-5-|
|-----------------------------------------------------------------|


  Chorus Part 1 x4   4:08 - 4:43
|-----------------------------------------------------------------|
|-----------------------------------------------------------------|
|-----------------3-3-3-3-3-3-3-3-5-5-5-5-5-5-5-5-5-5-5-5-5-5-5-5-|
|-0-0-0-0-0-0-0-0-------------------------------------------------|


  Chorus Part 2 x1   4:44 - 4:52
|---------------------------------------------|
|---------------------------------------------|
|-----------------3-3-3-3-3-3-3-3-5(let ring)-|
|-0-0-0-0-0-0-0-0-----------------------------|


  Verse (4th Intro) x1   4:53 - 5:01
|-----------------------------------------------------------------|
|-----------------------------------------------------------------|
|-5-5-5-5-5-5-5-5-5-5-5-5-5-5-5-5---------------------------------|
|---------------------------------3-3-3-3-3-3-3-3-3-3-3-3-3-3-3-3-|


  End x12   5:02 - 5:50
|---------------------------------|
|---------------------------------|
|-5-5-5-5-5-5-5-5-5-5-5-5-5-5-5-5-|
|---------------------------------|


-This is my first Bass Tab that I've posted on here, my first I ever posted online in 
case. If there is anything wrong with it, feel free to contact me so I can make the 
@ acosta.andrew@yahoo.com  -Have fun!

            
            
Suggest correction
Creating personal tab
Creating personal tab
You can edit any tab online and save it as your Personal.

You can edit, replace or remove any tab part or add personal notes – all changes will be seen only by you.

Personal tabs can be accessed anytime from any device, even offline.
Learn more »
Give kudos to tab author, rate the tab!
1 2 3 4 5
comments
print report bad tab
guest
Wanna post a correction for this tab? Suggest correction