Oops, an error
Loading. Please wait.
We have an official Pour Some Sugar On Me tab made by UG professional guitarists. Check out the tab »
×
544 views 15 this week
1 commentread comment
1 2 3 4 5
2 more votes to show rating
add to favorites
×
Save as Personal and add changes to this tab that will be seen only by you. Learn more ›
×
You can save this tab as Personal to edit and correct it or add notes. All changes will be seen only by you. Learn more »
launch autoscroll
font size
0
reset
guitar tuner
backing track
0:00
0:00
edit
Autoscroll
slow
fast
+/-
esc
set tempo
stop
Author
Difficulty
Standard tuning

Intro
|--------------------------------------------------------------------------------|
|--------------------------------------------------------------------------------|
|-----------4444444444444444444444444444444444444444444444444444444444444444444--|
|--------------------------------------------------------------------------------|

|------------------------------------------------|---------------------------------------|
|------------------------------------------------|---------------------------------------|
|--44-44--------44-44--------44-44--------44-44--|--44--------44--------44--------44--4--|
|------------------------------------------------|---------------------------------------|

Verse (bass starts at 0:53 and 2:12)
|----------------------------------------------------|x2
|----------------------------------------------------|The slide from the 9th fret is optional, but
|--9/44-4234----9/44-4234----9/44-4234----9/44-4234--|I think that it sounds pretty cool...
|----------------------------------------------------|

Pre-chorus
|--------------------------------------------|
|--------------------------------------------|
|-------2-2-------2-2-------0-0----0-2-2222--|
|--2-2-------2-2-------0-0-------0-----------|

Chorus
|-----------------------------------------------------------------|
|-----------------------------------------------------------------|
|-----00-0h22--0h22-------00-0h22--0h22-------00-0h22--0h22-------|
|--00------------------00------------------00------------------0--|

Pre-verse (1:50)
|---------------------------------------|
|---------------------------------------|
|--44--------44--------44--------44--4--|
|---------------------------------------|

Bridge (3:10)
|-------------------------------------------------------------------------------------|
|-------------------------------------------------------------------------------------|
|---------------4--------4----------------4--------4----------------------4--------4--|
|-------------------------------------------------------------------------------------|

Then pre-chorus and repeat chorus until the end.

Frankly, it's a bullshit. You can play it with eyes closed.

            
            
Suggest correction
Creating personal tab
Creating personal tab
You can edit any tab online and save it as your Personal.

You can edit, replace or remove any tab part or add personal notes – all changes will be seen only by you.

Personal tabs can be accessed anytime from any device, even offline.
Learn more »
Give kudos to tab author, rate the tab!
1 2 3 4 5
comments
print report bad tab
1 comment total.
+3 reply
Wppa 20 Mar 28, 2013 02:20 PM

Wow amazing tab dude! It's a shame I can't see it cause those dumb****s at the record company are bitching about copyrights again. Seriously do these idiots not realize how it works?

If somebody learns this song from this tab, and posts a cover on youtube, or plays it in a cover band, it's free advertising for the song. Plus hardly anybody buys tab books, most people just get it off the internet. Both nooo, these dickheads aren't making any money. Wah! Wah! Take it down!

Ultimate Guitar should just tell them to go **** themselves.

guest
You may want to rate the tab now too:
select rating
Wanna post a correction for this tab? Suggest correction