Oops, an error
Loading. Please wait.

Ring Of Fire tab

version 1
version 1

Whole song

Interactive

5,317 views 3 this week
no commentswrite comment
1 2 3 4 5
1 last vote to show rating
add to favorites
×
Save as Personal and add changes to this tab that will be seen only by you. Learn more ›
×
You can save this tab as Personal to edit and correct it or add notes. All changes will be seen only by you. Learn more »
launch autoscroll
font size
0
reset
how to read this tab
guitar tuner
edit
Autoscroll
slow
fast
+/-
esc
set tempo
stop
While Fading in (2x)
e-------------------------------------------------|
B-------------------------------------------------|
G-------------------------------------------------|
D--0--7--5--3--5--3--2--3--0--7--5--3--5--3--2--3-|
A-------------------------------------------------|
E-------------------------------------------------|

e-------------------------------------------------|
B-------------------------------------------------|
G-----2p0---------------------2p0-----------------|
D-----------3--5--3--2--3-----------3--5--3--2--3-|
A--1-----------------------1----------------------|
E-------------------------------------------------|

Verse

    Dm7		   Dm		  Gm		  Dm		 Gm
E--------------|-----------5--|-----------3--|-----------5--|-----------3---|
B-----------1--|--------6-----|--------3-----|--------6-----|--------3------|
G--------2-----|-----7--------|-----3--------|-----7--------|-----3---------|
D-----0--------|--7-----------|--5-----------|--7-----------|--5------------|
A--3-----------|--------------|--------------|--------------|---------------|
E--------------|--------------|--------------|--------------|---------------|

  Dm		Gm		Dm		Gm
E--------------|-----------3--|-----------5--|-----------3--|
B-----------6--|--------3-----|--------6-----|--------3-----|
G--------7-----|-----3--------|-----7--------|-----3--------|
D-----7--------|--5-----------|--7-----------|--5-----------|
A--5-----------|--------------|--------------|--------------|
E--------------|--------------|--------------|--------------|

Pre Chorus

 Bbsus2         Csus2         Bbsus2
E---------------------------|---------------|
B--------1------------3-----|--------1------|
G--3--------3---5--------5-*|--3--------3---|
D--3--3---------5--5-------*|--3--3---------|
A--1------------3-----------|--1------------|
E---------------------------|---------------|

 Bbsus2         Csus2         Bbsus2
E---------------------------|---------------|
B--------1------------3-----|--------1------|
G--3--------3---5--------5-*|--3--------3---|
D--3--3---------5--5-------*|--3--3---------|
A--1------------3-----------|--1------------|
E---------------------------|---------------|

 Bbsus2         Csus2         Bbsus2
E---------------------------|---------------|
B--------1------------3-----|--------1------|
G--3--------3---5--------5-*|--3--------3---|
D--3--3---------5--5-------*|--3--3---------|
A--1------------3-----------|--1------------|
E---------------------------|---------------|

 Em

E------------------------------------------------|
B------------------------------------------------|
G--------2--3--2---------------------------------|
D-----2-----------2------------------------------|
A--0-----------------0-----------------0--1--3---|
E-----------------------3--0--1--2--3------------|

Chorus

   D5				   Bb5	       Bb5b           D5
E----------------------------------------------------------------|
B----------------------------------------------------------------|
G--2--------------------------------10---9---10---9---10---9---2-|
D--0-----0-0-0-0-0-0-0-0-0-0-0-0----8----8-0-8----8-0-8----8---0-|
A----------------------------------------------------------------|
E----------------------------------------------------------------|

   D5				   Bb5	       Bb5b           D5
E----------------------------------------------------------------|
B----------------------------------------------------------------|
G--2--------------------------------10---9---10---9---10---9---2-|
D--0-----0-0-0-0-0-0-0-0-0-0-0-0----8----8-0-8----8-0-8----8---0-|
A----------------------------------------------------------------|
E----------------------------------------------------------------|

e-------------------------|
B-------------------------|
G-----2p0-----------------|
D-----------3--5--3--2--3-|
A--1----------------------|
E-------------------------|

Verse, Pre Chorus, Chorus

Don't know beginning of solo but in the middle it goes.

e------------------------------------------|
B------------------------------------------|
G------------------------------------------|} 2x
D-0-2-3--0-2-3-3----0-2-3---0-2-3-3--------|
A------------------------------------------|
E------------------------------------------|

e---------------------------------|
B---------------------------------|
G---------------------------------| }2x
D-0-3p2p0-------------------------|
A------------------------0-1-3----|
E----------3----0-1-2-3-----------|


Verse, Pre Chorus, Chorus


   Dm7                      Dm
Thunder, you're tempting me
                 Gm                               Dm
A feast of spice    in the night is what I need
                        Gm
Ooh I'm a-ready to roar
                        Dm
And I'm a-ready for more
                         Gm
Well I'm a-ready to burn
              Dm               Gm
like the light   into the dawn

Oh I gotta see the
 Bbsus2     Csus2         Bbsus2
fire in me turning into ecstasy
       Bbsus2         Csus2         Bbsus2
So stick around and settle down, enjoy the mystery
    Bbsus2         Csus2         Bbsus2
A voice in the wilderness, there's somethin' in the air
Em
A hidden love, forbidden pleasure, suffer secret pain
D5                                   Bb5	   Bb5b
Thunder Are you ready, ready for burnin'
D5
Feels like fire
D5                             Bb5   Bb5b
Are you ready, ready for burnin'
D5
Ring of fire
        Dm7                Dm
Heartless,   so indiscreet
                   Gm                            Dm
You're stealing up    from behind, a raging heat
                         Gm
I'm staring into the sun
                       Dm
I'm staring into a gun
                       Gm
I'm stirring up a storm
           Dm                Gm
Turn it on   and let it burn

Oh I gotta see the
 Bbsus2     Csus2         Bbsus2
fire in me turning into ecstasy
       Bbsus2         Csus2         Bbsus2
So stick around and settle down, enjoy the mystery
       Bbsus2         Csus2         Bbsus2
A voice in the wilderness, there's somethin' in the air
Em
A hidden love, forbidden pleasure, suffer secret pain
   D5                              Bb5	   Bb5b
Thunder Are you ready, ready for burnin'
              D5
Feels like fire
D5                         Bb5	   Bb5b
Are you ready, ready for burnin'
D5
Ring of fire
D5                              Bb5	   Bb5b
Are you ready, ready for burnin'
     D5
Oh, feels like fire
                           Bb5	   Bb5b
Are you ready, ready for burnin'
D5
Ring of fire


       Dm7              Dm
Thunder,   you tempted me
             Gm                          Dm
Ya cut me up,    like a knife so tenderly
                 Bbsus2         Csus2         Bbsus2
Oh I gotta see the fire in me
Bbsus2      Csus2      Bbsus2
Burning up my ecstasy
Em
A hidden love, forbidden pleasure, suffer secretly

Oh no
D5                              Bb5	   Bb5b
Are you ready, ready for burnin'
            D5
Feels like fire
D5                              Bb5	   Bb5b
Are you ready, ready for burnin'
         D5
Ring of fire
D5                              Bb5	   Bb5b
Are you ready, ready for burnin'
           D5
Feels like fire
D5                              Bb5	   Bb5b
Are you ready, ready for burnin'
         D5
Ring of fire

            
            
Suggest correction
Creating personal tab
Creating personal tab
You can edit any tab online and save it as your Personal.

You can edit, replace or remove any tab part or add personal notes – all changes will be seen only by you.

Personal tabs can be accessed anytime from any device, even offline.
Learn more »
Give kudos to tab author, rate the tab!
1 2 3 4 5
comments
print report bad tab
guest
Wanna post a correction for this tab? Suggest correction