Oops, an error
Loading. Please wait.

Rock Brigade bass

version 1
version 1

Whole song

Interactive

1,142 views 1 this week
no commentswrite comment
1 2 3 4 5
2 more votes to show rating
add to favorites
×
Save as Personal and add changes to this tab that will be seen only by you. Learn more ›
×
You can save this tab as Personal to edit and correct it or add notes. All changes will be seen only by you. Learn more »
launch autoscroll
font size
0
reset
guitar tuner
backing track
0:00
0:00
edit
Autoscroll
slow
fast
+/-
esc
set tempo
stop
Author
Difficulty
Artist:Def Leppard
Song:Rock Brigade
Album:On Through The Night
Bassist:Rick Savage
Tabber:Dev Fuld

This is the first track on Def Leppard's first album, On Through The Night. 
What a kickass tune to start off their career.

Key:
x = times a number
* = let it ring

*Guitar Intro*

Chorus 1
G:--------------------------------------------|
D:----3-----3-----3-----3-----3-----3---------|
A:------5x5---3x5---5x5---------5x5-------1x16|
E:3x5---------------------3x5---------3x8-----|

After Chorus/Verse
G:---------|---------|--------|-------|
D:---------|---------|--------|-------|
A:5-5-3---5|5-5-3----|1--1-3-3|----3-5|
E:------5--|------5-5|--------|3-5----|

Chorus 2
G:-------------------------------------------3-1------------5-3------------7---7---7---7|
D:----3-----3-----3-----3-----3-----3------------3-1------------5-3---------------------|
A:------5x5---3x5---5x5---------5x5-------1*---------3-1-3*---------5-3-5*---5---5---5--|
E:3x5---------------------3x5---------3x8-----------------------------------------------|

Solo
G:---------------------|---------------------|---------------------|--------------------|
D:---------------------|---------------------|---------------------|--------------------|
A:3-5--3-4-5-3-4-5--3--|3-5--3-4-5-3-4-5--3--|3-5--3-4-5-3-4-5--3--|3-5--3-4-5-3-4-5--3-|
E:--------------------3|--------------------3|--------------------3|-------------------3|

G:---------------------|---------------------|---------------------|--------------------|
D:---------------------|---------------------|---------------------|--------------------|
A:--------------------3|--------------------3|--------------------3|-------------------3|
E:3-5--3-4-5-3-4-5--3--|3-5--3-4-5-3-4-5--3--|3-5--3-4-5-3-4-5--3--|3-5--3-4-5-3-4-5--3-|

Bridge
G:------|
D:------|
A:3*----|
E:----0*|

Verse

Chorus 3
G:-----------------------------------------------|
D:----3-----3-----3-----3-----3-----3-----3-----3|
A:------5x5---3x5---5x5---------5x5---3x5---5x5--|
E:3x5---------------------3x5--------------------|

G:-------------------------------------------3-1------------5-3---------------------|
D:----3-----3-----3-----3-----3-----3------------3-1------------5-3-----------------|
A:------5x5---3x5---5x5---------5x5-------1*---------3-1-3*---------5-3-5*--3-----5*|
E:3x5---------------------3x5---------3x8-------------------------------------3-1---|

That's it! I love this tune. Everything is correct. I even put it in the correct 
order. Any questions or comments, e-mail me at rocklvson@yahoo.com

            
            
Suggest correction
Creating personal tab
Creating personal tab
You can edit any tab online and save it as your Personal.

You can edit, replace or remove any tab part or add personal notes – all changes will be seen only by you.

Personal tabs can be accessed anytime from any device, even offline.
Learn more »
Give kudos to tab author, rate the tab!
1 2 3 4 5
comments
print report bad tab
guest
You may want to rate the tab now too:
select rating
Wanna post a correction for this tab? Suggest correction