Oops, an error
Loading. Please wait.

When Love And Hate Collide bass

version 2
version 2

Whole song

Interactive

3,430 views 1 this week
2 commentsread comments
1 2 3 4 5
1 last vote to show rating
add to favorites
×
Save as Personal and add changes to this tab that will be seen only by you. Learn more ›
×
You can save this tab as Personal to edit and correct it or add notes. All changes will be seen only by you. Learn more »
launch autoscroll
font size
0
reset
guitar tuner
backing track
0:00
0:00
edit
Autoscroll
slow
fast
+/-
esc
set tempo
stop
Author
When love and hate collide - Def leppard

Tabbed by  Baron Johann

\ slide down
/ slide up
h hammer on
p pull off

Intro

g|----------------------------|----------------------------||
d|----------------------------|----------------------------||
a|---------2----2-0----0------|---------2----2-0----0-2----||
e|--0----0---------------0----|0-0----0--------------------||

Verse 1

g|-------------------------------------|-----------------------------------------||
d|-------------------------------------|-----------------------------------------||
a|----------4--------0-----------------|----------4--------0--------------2--7\--||
e|-0--------------------------0--------|-0--------------------------0-------0----||
You could have a change of heart If you would only change your mind 
Instead of slamming down the phone, girl For the hundredth time 
I got your number on my wall But I ain't gonna make that call 
When divided we stand, baby United we fall.

Pre chorus

g|----------------------------------------------------------||
d|----------------------------------------------------------||
a|----------------------------------------------------------||
e|-0----0-0----0-5----5-5----5/9----9-9----9\5----5h7-7-----||
Got the time, got a chance, gonna make it Got my hands on your heart, gonna take it 
All I know, I can't fight this flame 

g|----------------------------------------------------------||
d|----------------------------------------------------------||
a|----------------------------------------------------------||
e|-0----0-0----0-5----5-5----5/9----9-9----9\5----5h7-7-----||
You could have a change of heart If you would only change your mind 
Cause I'm crazy 'bout you baby Time after time

Chorus

g|-------------------------|-------------------------||
d|-------------------------|-------------------------||
a|--------2----0----0-2----|--------2----0----0-2----||
e|-0----0------------------|-0----0------------------||
Without you One night alone 
Is like a year without you baby Do you have a heart of stone

g|-------------------|-------------------|-----------------||
d|-------------------|-------------------|-----------------||
a|-4--------2--------|-0-----------------|-----------------||
e|-------------------|----------2--------|-0---------------||
Without you Can't stop the hurt inside When love and hate collide

Verse 2

g|-------------------------|-----------------------------||
d|-------------------------|-----------------------------||
a|-------------4----4-4----|-0----0-0-----------2--------||
e|-0----0-0----------------|-------------0----0----------||
I don't wanna fight no more I don't know what we're fighting for 
When we treat each other, baby Like an act of war


g|-------------------------|------------------------------||
d|-------------------------|------------------------------||
a|-------------4----4-4----|-0----0-0-----------2-----7\--||
e|-0----0-0----------------|-------------0----0------0----||
I could tell a million lies And it would come as no surprise 
When the truth is like a stranger Hits you right between the eyes

Pre chorus (different from the first pre chorus)
g|---------------------------------------------------------------||
d|---------------------------------------------------------------||
a|---------------------------------------------------------------||
e|-0----0-0----0-5----5-5----5/9----9-9----9\5----5----5h7-7-----||
There's a time and a place and a reason And I know I got a love to believe in 
All I know Got to win this time

Chorus

g|-------------------------|-------------------------||
d|-------------------------|-------------------------||
a|--------2----0----0-2----|--------2----0----0-2----||
e|-0----0------------------|-0----0------------------||
Without you One night alone 
Is like a year without you baby Do you have a heart of stone

g|-------------------|-------------------|-----------------||
d|-------------------|-------------------|-----------------||
a|-4--------2--------|-0-----------------|-----------------||
e|-------------------|----------2--------|-0---------------||
Without you Can't stop the hurt inside When love and hate collide

Guitar Solo

g|-----------------|-----------------|-----------------|--------------------||
d|-----------------|---------2--2----|-----------------|--2h4p2---2h4p2-2---||
a|-0--0----0--0----|-0--0------------|-----------------|-2-------2-----4-42-||
e|-------0---------|-------0---------|-0--0--0-0--0----|--------------------||

g|-----------------|-----------------|-----------------|-----------------||
d|--------77777777-|---------2--2----|-----------------|-----------------||
a|-0--0------------|-0--0------------|-----------------|-0h2-2222--22-22-||
e|-------0---------|-------0---------|-0--0--0-0--0----|----------2--2---||

Pre chorus

g|-------------------------------------------------------------||
d|-------------------------------------------------------------||
a|-------------------------------------------------------------||
e|-0----0-0----0-5----5-5----5/9----9-9----9\5----5x-----7x----||
You could have a change of heart If you would only change your mind 
Cause I'm crazy 'bout you baby Crazy, crazy

Chorus

g|-------------------------|-------------------------||
d|-------------------------|-------------------------||
a|--------2----0----0-2----|--------2----0----0-2----||
e|-0----0------------------|-0----0------------------||
Without you One night alone 
Is like a year without you baby Do you have a heart of stone

Chorus

g|-------------------------|-------------------------||
d|-------------------------|-------------------------||
a|--------2----0----0-2----|--------2----0----0-2----||
e|-0----0------------------|-0----0------------------||
Without you One night alone 
Is like a year without you baby If you have a heart at all 

g|-------------------|-------------------|-----------------||
d|-------------------|-------------------|-----------------||
a|-4--------2--------|-0-----------------|-----------------||
e|-------------------|-------------------|-0---------------||
Without you Can't stop the hurt inside When love and hate collide

            
            
Suggest correction
Creating personal tab
Creating personal tab
You can edit any tab online and save it as your Personal.

You can edit, replace or remove any tab part or add personal notes – all changes will be seen only by you.

Personal tabs can be accessed anytime from any device, even offline.
Learn more »
Give kudos to tab author, rate the tab!
1 2 3 4 5
comments
print report bad tab
2 comments total.
0 reply
shredder_666 341 Dec 05, 2006 04:59 AM

no complaints from me. great!

0 reply
Gimlock221 10 Jan 15, 2012 02:18 PM

same here, once you get the timing down its a awesome song to play

guest
You may want to rate the tab now too:
select rating
Wanna post a correction for this tab? Suggest correction