Oops, an error
Loading. Please wait.

Taking My Life Away tab

version 3
version 3

Whole song

by Default
1,774 views 1 this week
no commentswrite comment
1 2 3 4 5
2 more votes to show rating
add to favorites
×
Save as Personal and add changes to this tab that will be seen only by you. Learn more ›
×
You can save this tab as Personal to edit and correct it or add notes. All changes will be seen only by you. Learn more »
launch autoscroll
font size
0
reset
how to read this tab
guitar tuner
edit
Autoscroll
slow
fast
+/-
esc
set tempo
stop
Author
Difficulty
(Taking My) Life Away
Default
Elocation (2003)

(Taking My) Life Away:  Written by Jim Vallance, Jeremy Hora, 
                                Dallas Smith, Dave Benedict, Danny Craig

GTR I - Standard Tuning (E,B,G,D,A,E)
GTR II - Standard Tuning (E,B,G,D,A,E)

INTRO

e|---0---0-0-------0-------------------------------------------|
B|---3---3-3-----------3---------------------------------------|
G|-2---2---2-4-4---------4-0-0-0-x-x---------0-0-0-0/0---------|
D|-0---0-----4---4---4-----2-2-2-x-x-0-0-0-0-2-2-2-2/4-0-0-0-0-|
A|-----------2-------------3-3-3-x-x-2-2-2-2-3-3-3-3/5-2-2-2-2-|
E|-------------------------------x-x-3-3-3-3-----------3-3-3-3-|
 |                                                             |
 |                                                             |
e|-------------------------------------------------------------|
B|-------------------------------------------------------------|
G|-------------------------------------------------------------|
D|-------------------------------------------------------------|
A|-------------------------------------------------------------|
E|-------------------------------------------------------------|

e|---0-0h2-----------0-------------------------------------------|
B|---3-----3-------------3---------------------------------------|
G|-2---------2-4-4---------4-0-0-0-x-x---------0-0-0-0/0---------|
D|-0-----------4---4---4-----2-2-2-x-x-0-0-0-0-2-2-2-2/4-0-0-0-0-|
A|-------------2-------------3-3-3-x-x-2-2-2-2-3-3-3-3/5-2-2-2-2-|
E|---------------------------------x-x-3-3-3-3-----------3-3-3-3-|
 |                                                               |
 |                                                               |
e|---------------------------------------------------------------|
B|---------------------------------------------------------------|
G|---------------------------------------------------------------|
D|---------------------------------------------------------------|
A|---------------------------------------------------------------|
E|---------------------------------------------------------------|

VERSE

e|---0---0---0---0-------------------------------------|
B|---3---3---3---3-------------------------------------|
G|-2---2---4-4-4-4-0-0-0-x-x---------0-0-0-0/0---------|
D|-0---0---4---4---2-2-2-x-x-0-0-0-0-2-2-2-2/4-0-0-0-0-|
A|---------2---2---3-3-3-x-x-2-2-2-2-3-3-3-3/5-2-2-2-2-|
E|-----------------------x-x-3-3-3-3-----------3-3-3-3-|
 |                                                     |
 |                                                     |
e|-----------------------------------------------------|
B|-----------------------------------------------------|
G|-----------------------------------------------------|
D|-----------------------------------------------------|
A|-----------------------------------------------------|
E|-----------------------------------------------------|

PRE-CHORUS

e|---0---0---0---0-------------------------|
B|---3---3---3---3-------1-1-1-1-1-1-1-1-1-|
G|-2---2---4-4-4-4-0-0-0-0-0-0-0-0-0-0-0-0-|
D|-0---0---4---4---2-2-2-2-2-2-2-2-2-2-2-2-|
A|---------2---2---3-3-3-3-3-3-3-3-3-3-3-3-|
E|-----------------------------------------|
 |                                         |
 |                                         |
e|----------------------------------xx-x-x-|
B|----------------------------------xx-x-x-|
G|----------------------------------xx-x-x-|
D|----------------------------------xx-x-x-|
A|----------------------------------xx-x-x-|
E|----------------------------------xx-x-x-|

CHORUS

e|-0--00000--00000--00000--0000---------------------------------------------|
B|-3--33333--33333--33333--3333---------------------------------------------|
G|-2--22222--22222--22222--22220--00000--00000--00000--00000--00000--00000--|
D|-0--00000--00000--00000--00000--00000--00000--00000--00002--22222--22222--|
A|-----------------------------2--22222--22222--22222--22222--22222--22222--|
E|-----------------------------3--33333--33333--33333--33330--00000--00000--|
 |                                                                          |
 |                                                                          |
e|--------------------------------------------------------------------------|
B|--------------------------------------------------------------------------|
G|-7------------6-------7---------------------------------------------------|
D|-7------------7-------7------5---------------------------2----------------|
A|-5------------4-------5------5---------------------------2----------------|
E|-----------------------------3---------------------------0----------------|
                                            
e|------------------------------------------|
B|------------------------------------------|
G|-00000--00000--00000--00000--00000--00000-|
D|-22222--22220--00000--00000--00000--00000-|
A|-22222--22222--22222--22222--22222--22222-|
E|-00000--00003--33333--33333--33333--33333-|
 |                                          |
 |                                          |
e|------------------------------------------|
B|------------------------------------------|
G|------------------------------------------|
D|------------5----------------5-4----5-4---|
A|------------5--------------------5------5-|
E|------------3-----------------------------|

e|-0--00000--00000--00000--0000---------------------------------------------|
B|-3--33333--33333--33333--3333---------------------------------------------|
G|-2--22222--22222--22222--22220--00000--00000--00000--00000--00000--00000--|
D|-0--00000--00000--00000--00000--00000--00000--00000--00002--22222--22222--|
A|-----------------------------2--22222--22222--22222--22222--22222--22222--|
E|-----------------------------3--33333--33333--33333--33330--00000--00000--|
 |                                                                          |
 |                                                                          |
e|--------------------------------------------------------------------------|
B|--------------------------------------------------------------------------|
G|-7------------6-------7---------------------------------------------------|
D|-7------------7-------7------5---------------------------2----------------|
A|-5------------4-------5------5---------------------------2----------------|
E|-----------------------------3---------------------------0----------------|
                                              
e|-------------------------------------------0--|
B|-------------------------------------------3--|
G|-00000--00000--00000--00000--00000--00000--2--|
D|-22222--22220--00000--00000--00000--00000--0--|
A|-22222--22222--22222--22222--22222--22222-----|
E|-00000--00003--33333--33333--33333--33333-----|
 |                                              |
 |                                              |
e|----------------------------------------------|
B|----------------------------------------------|
G|-------------------------------------------7--|
D|------------5----------------5-4----5-4----7--|
A|------------5--------------------5------5--5--|
E|------------3---------------------------------|

VERSE 2

e|---0---0---0---0-------------------------------------|
B|---3---3---3---3-------------------------------------|
G|-2---2---4-4-4-4-0-0-0-x-x---------0-0-0-0/0---------|
D|-0---0---4---4---2-2-2-x-x-0-0-0-0-2-2-2-2/4-0-0-0-0-|
A|---------2---2---3-3-3-x-x-2-2-2-2-3-3-3-3/5-2-2-2-2-|
E|-----------------------x-x-3-3-3-3-----------3-3-3-3-|
 |                                                     |
 |                                                     |
e|-----------------------------------------------------|
B|-----------------------------------------------------|
G|-------------------------------------9-7h9-7---------|
D|-----------------------------------7-----------------|
A|-----------------------------------------------------|
E|-----------------------------------------------------|

e|---0---0---0---0-------------------------------------|
B|---3---3---3---3-------------------------------------|
G|-2---2---4-4-4-4-0-0-0-x-x---------0-0-0-0/0---------|
D|-0---0---4---4---2-2-2-x-x-0-0-0-0-2-2-2-2/4-0-0-0-0-|
A|---------2---2---3-3-3-x-x-2-2-2-2-3-3-3-3/5-2-2-2-2-|
E|-----------------------x-x-3-3-3-3-----------3-3-3-3-|
 |                                                     |
 |                                                     |
e|-----------------------------------------------------|
B|-----------------------------------------------------|
G|-----------------------------------7-----------------|
D|--------------------------------------/9-7-----------|
A|-----------------------------------------------------|
E|-----------------------------------------------------|

e|---0---0---0---0-------------------------------------|
B|---3---3---3---3-------------------------------------|
G|-2---2---4-4-4-4-0-0-0-x-x---------0-0-0-0/0---------|
D|-0---0---4---4---2-2-2-x-x-0-0-0-0-2-2-2-2/4-0-0-0-0-|
A|---------2---2---3-3-3-x-x-2-2-2-2-3-3-3-3/5-2-2-2-2-|
E|-----------------------x-x-3-3-3-3-----------3-3-3-3-|
 |                                                     |
 |                                                     |
e|-----------------------------------------------------|
B|-----------------8-p-7-h-8-/10---8-p-7-h-8-/10-------|
G|------------------------------7--------------/9--\7--|
D|-----------------------------------------------------|
A|-----------------------------------------------------|
E|-----------------------------------------------------|

PRE-CHORUS 2

e|---0---0---0---0-------------------------|
B|---3---3---3---3-------1-1-1-1-1-1-1-1-1-|
G|-2---2---4-4-4-4-0-0-0-0-0-0-0-0-0-0-0-0-|
D|-0---0---4---4---2-2-2-2-2-2-2-2-2-2-2-2-|
A|---------2---2---3-3-3-3-3-3-3-3-3-3-3-3-|
E|-----------------------------------------|
 |                                         |
 |                                         |
e|------------------10----10----10--xx-x-x-|
B|-----------------8--8x-8--8x-8--8-xx-x-x-|
G|----------------------------------xx-x-x-|
D|----------------------------------xx-x-x-|
A|----------------------------------xx-x-x-|
E|----------------------------------xx-x-x-|

CHORUS

e|-0--00000--00000--00000--0000---------------------------------------------|
B|-3--33333--33333--33333--3333---------------------------------------------|
G|-2--22222--22222--22222--22220--00000--00000--00000--00000--00000--00000--|
D|-0--00000--00000--00000--00000--00000--00000--00000--00002--22222--22222--|
A|-----------------------------2--22222--22222--22222--22222--22222--22222--|
E|-----------------------------3--33333--33333--33333--33330--00000--00000--|
 |                                                                          |
 |                                                                          |
e|--------------------------------------------------------------------------|
B|--------------------------------------------------------------------------|
G|-7------------6-------7---------------------------------------------------|
D|-7------------7-------7------5---------------------------2----------------|
A|-5------------4-------5------5---------------------------2----------------|
E|-----------------------------3---------------------------0----------------|
                                             
e|------------------------------------------|
B|------------------------------------------|
G|-00000--00000--00000--00000--00000--00000-|
D|-22222--22220--00000--00000--00000--00000-|
A|-22222--22222--22222--22222--22222--22222-|
E|-00000--00003--33333--33333--33333--33333-|
 |                                          |
 |                                          | 
e|------------------------------------------|
B|------------------------------------------|
G|------------------------------------------|
D|------------5----------------5-4----5-4---|
A|------------5--------------------5------5-|
E|------------3-----------------------------|

e|-0--00000--00000--00000--0000---------------------------------------------|
B|-3--33333--33333--33333--3333---------------------------------------------|
G|-2--22222--22222--22222--22220--00000--00000--00000--00000--00000--00000--|
D|-0--00000--00000--00000--00000--00000--00000--00000--00002--22222--22222--|
A|-----------------------------2--22222--22222--22222--22222--22222--22222--|
E|-----------------------------3--33333--33333--33333--33330--00000--00000--|
 |                                                                          |
 |                                                                          |
e|--------------------------------------------------------------------------|
B|--------------------------------------------------------------------------|
G|-7------------6-------7---------------------------------------------------|
D|-7------------7-------7------5---------------------------2----------------|
A|-5------------4-------5------5---------------------------2----------------|
E|-----------------------------3---------------------------0----------------|
                                             
e|------------------------------------------|
B|------------------------------------------|
G|-00000--00000--00000--00000--00000--00000-|
D|-22222--22220--00000--00000--00000--00000-|
A|-22222--22222--22222--22222--22222--22222-|
E|-00000--00003--33333--33333--33333--33333-|
 |                                          |
 |                                          | 
e|------------------------------------------|
B|------------------------------------------|
G|------------------------------------------|
D|------------5----------------5-4----5-4---|
A|------------5--------------------5------5-|
E|------------3-----------------------------|

BRIDGE

e|--------------------------------------------------------------|
B|--------------------------------------------------------------|
G|-3------------------------------------------------------------|
D|-3---xx-x-x-3---xx-x-x----------------------------------------|
A|-1---xx-x-x-3---xx-x-x----------------------------------------|
E|-----xx-x-x-1---xx-x-x----------------------------------------|
 |                                                              |
 |                                                              |
e|--------------------------------------------------------------|
B|--------------------------------------------------------------|
G|-3----------------------5-5555-5/7-7777-7-9-9999-9-1010101010-|
D|-3---xx-x-x-3---xx-x-x--x-xxxx-x/x-xxxx-x/x-xxxx-x/-x-x-x-x-x-|
A|-1---xx-x-x-3---xx-x-x--3-3333-3/5-5555-5/7-7777-7/-8-8-8-8-8-|
E|-----xx-x-x-1---xx-x-x----------------------------------------|

e|--------------------------------------------------------------|
B|--------------------------------------------------------------|
G|-3------------------------------------------------------------|
D|-3---xx-x-x-3---xx-x-x----------------------------------------|
A|-1---xx-x-x-3---xx-x-x-------------------------------------4+-|
E|-----xx-x-x-1---xx-x-x-------------------------------/14\x----|
 |                                                              |
 |                                                              |
e|--------------------------------------------------------------|
B|--------------------------------------------------------------|
G|-3----------------------5-5555-5/7-7777-7-9-9999-9-1010101010-|
D|-3---xx-x-x-3---xx-x-x--x-xxxx-x/x-xxxx-x/x-xxxx-x/-x-x-x-x-x-|
A|-1---xx-x-x-3---xx-x-x--3-3333-3/5-5555-5/7-7777-7/-8-8-8-8-8-|
E|-----xx-x-x-1---xx-x-x----------------------------------------|

SOLO

e|-------------------------------------------------------------------|
B|-------------------------------------------------------------------|
G|--12-10-9-10--12-10-9-10--12-10-9-10--12-10-9-10-9-----------------|
D|---x--x-x--x---x--x-x--x---x--x-x--x---x--x-x--x-x-10---10----5-10-|
A|-/10--8\7--8-/10--8\7--8-/10--8/7--8-/10--8\7--8\7--x----x----x--x-|
E|----------------------------------------------------8----8---/3\-8-|
 |                                                                   |
 |                                                                   |
e|-------------------------------------------------------------------|
B|-------------------------------------------------------------------|
G|---3------------------------------------------------5--------------|
D|---3-------------------3----------------------------5--------------|
A|---1-------------------3----------------------------3--------------|
E|-----------------------1-------------------------------------------|

e|------------------------------------------------------------------------|
B|------------------------------------------------------------------------|
G|--12-10-9-10--12-10-9-10--12-10-9-10--12-10-9-10-9--17--14-10-9-10--12--|
D|---x--x-x--x---x--x-x--x---x--x-x--x---x--x-x--x-x---x---x--x-x--x---x--|
A|-/10--8\7--8-/10--8\7--8-/10--8/7--8-/10--8\7--8\7-/15--12--8\7--8-/10--|
E|------------------------------------------------------------------------|
 |                                                                        |
 |                                                                        |
e|------------------------------------------------------------------------|
B|------------------------------------------------------------------------|
G|---3-------------------------------------------------5-3----------------|
D|---3-------------------3-----------------------------5-3-5--3\2--3---5--|
A|---1-------------------3-----------------------------3-1-5--3\2--3---5--|
E|-----------------------1---------------------------------3--1\0--1---3--|

POST-SOLO

e|---0---0---0---0------------------|
B|---3---3---3---3------------------|
G|-2---2---4-4-4-4-0-0-0-0/0--------|
D|-0---0---4---4---2-2-2-2/4--------|
A|---------2---2---3-3-3-3/5--------|
E|----------------------------------|
 |                                  |
 |                                  |
e|--------------------------------x-|
B|--------------------------------x-|
G|--------------------------------x-|
D|--------------------------------x-|
A|--------------------------------x-|
E|--------------------------------x-|

CHORUS

e|-0--00000--00000--00000--0000---------------------------------------------|
B|-3--33333--33333--33333--3333---------------------------------------------|
G|-2--22222--22222--22222--22220--00000--00000--00000--00000--00000--00000--|
D|-0--00000--00000--00000--00000--00000--00000--00000--00002--22222--22222--|
A|-----------------------------2--22222--22222--22222--22222--22222--22222--|
E|-----------------------------3--33333--33333--33333--33330--00000--00000--|
 |                                                                          |
 |                                                                          |
e|--------------------------------------------------------------------------|
B|--------------------------------------------------------------------------|
G|-7------------6-------7---------------------------------------------------|
D|-7------------7-------7------5---------------------------2----------------|
A|-5------------4-------5------5---------------------------2----------------|
E|-----------------------------3---------------------------0----------------|
                                             
e|------------------------------------------|
B|------------------------------------------|
G|-00000--00000--00000--00000--00000--00000-|
D|-22222--22220--00000--00000--00000--00000-|
A|-22222--22222--22222--22222--22222--22222-|
E|-00000--00003--33333--33333--33333--33333-|
 |                                          |
 |                                          | 
e|------------------------------------------|
B|------------------------------------------|
G|------------------------------------------|
D|------------5----------------5-4----5-4---|
A|------------5--------------------5------5-|
E|------------3-----------------------------|

e|-0--00000--00000--00000--0000---------------------------------------------|
B|-3--33333--33333--33333--3333---------------------------------------------|
G|-2--22222--22222--22222--22220--00000--00000--00000--00000--00000--00000--|
D|-0--00000--00000--00000--00000--00000--00000--00000--00002--22222--22222--|
A|-----------------------------2--22222--22222--22222--22222--22222--22222--|
E|-----------------------------3--33333--33333--33333--33330--00000--00000--|
 |                                                                          |
 |                                                                          |
e|--------------------------------------------------------------------------|
B|--------------------------------------------------------------------------|
G|-7------------6-------7---------------------------------------------------|
D|-7------------7-------7------5---------------------------2----------------|
A|-5------------4-------5------5---------------------------2----------------|
E|-----------------------------3---------------------------0----------------|
                                             
e|------------------------------------------|
B|------------------------------------------|
G|-00000--00000--00000--00000--00000--00000-|
D|-22222--22220--00000--00000--00000--00000-|
A|-22222--22222--22222--22222--22222--22222-|
E|-00000--00003--33333--33333--33333--33333-|
 |                                          |
 |                                          | 
e|------------------------------------------|
B|------------------------------------------|
G|------------------------------------------|
D|------------5----------------5-4----5-4---|
A|------------5--------------------5------5-|
E|------------3-----------------------------|

e|-------------------------------------------------------------0--|
B|-------------------------------------------------------------3--|
G|-0--00000--00000--00000--00000-0--00000--00000--00000--00000-2--|
D|-0--00000--00000--00000--00000-0--00000--00000--00000--00000-0--|
A|-2--22222--22222--22222--22222-2--22222--22222--22222--22222----|
E|-3--33333--33333--33333--33333-3--33333--33333--33333--33333----|
 |                                                                |
 |                                                                |
e|----------------------------------------------------------------|
B|----------------------------------------------------------------|
G|-------------------------------------------------------------7--|
D|-5----------------5-4----5-4---5----------------5-4----5-4---7--|
A|-5--------------------5------5-5--------------------5------5-5--|
E|-3-----------------------------3--------------------------------|

| /  slide up
| \  slide down
| h  hammer-on
| p  pull-off
| ~  vibrato
| +  harmonic
| x  Mute note

            
            
Suggest correction
Creating personal tab
Creating personal tab
You can edit any tab online and save it as your Personal.

You can edit, replace or remove any tab part or add personal notes – all changes will be seen only by you.

Personal tabs can be accessed anytime from any device, even offline.
Learn more »
Give kudos to tab author, rate the tab!
1 2 3 4 5
comments
print report bad tab
guest
You may want to rate the tab now too:
select rating
Wanna post a correction for this tab? Suggest correction